  0
SECTION
  2
HEADER
  9
$ACADVER
  1
AC1014
  9
$ACADMAINTVER
 70
     9
  9
$DWGCODEPAGE
  3
UNDEFINED
  9
$INSBASE
 10
0.0
 20
0.0
 30
0.0
  9
$EXTMIN
 10
1.000000000000000E+20
 20
1.000000000000000E+20
 30
1.000000000000000E+20
  9
$EXTMAX
 10
-1.000000000000000E+20
 20
-1.000000000000000E+20
 30
-1.000000000000000E+20
  9
$LIMMIN
 10
0.0
 20
0.0
  9
$LIMMAX
 10
12.0
 20
9.0
  9
$ORTHOMODE
 70
     0
  9
$REGENMODE
 70
     1
  9
$FILLMODE
 70
     1
  9
$QTEXTMODE
 70
     0
  9
$MIRRTEXT
 70
     1
  9
$DRAGMODE
 70
     2
  9
$LTSCALE
 40
1.0
  9
$OSMODE
 70
    37
  9
$ATTMODE
 70
     1
  9
$TEXTSIZE
 40
0.2
  9
$TRACEWID
 40
0.05
  9
$TEXTSTYLE
  7
STANDARD
  9
$CLAYER
  8
0
  9
$CELTYPE
  6
BYLAYER
  9
$CECOLOR
 62
   256
  9
$CELTSCALE
 40
1.0
  9
$DELOBJ
 70
     1
  9
$DISPSILH
 70
     0
  9
$DIMSCALE
 40
1.0
  9
$DIMASZ
 40
0.18
  9
$DIMEXO
 40
0.0625
  9
$DIMDLI
 40
0.38
  9
$DIMRND
 40
0.0
  9
$DIMDLE
 40
0.0
  9
$DIMEXE
 40
0.18
  9
$DIMTP
 40
0.0
  9
$DIMTM
 40
0.0
  9
$DIMTXT
 40
0.18
  9
$DIMCEN
 40
0.09
  9
$DIMTSZ
 40
0.0
  9
$DIMTOL
 70
     0
  9
$DIMLIM
 70
     0
  9
$DIMTIH
 70
     1
  9
$DIMTOH
 70
     1
  9
$DIMSE1
 70
     0
  9
$DIMSE2
 70
     0
  9
$DIMTAD
 70
     0
  9
$DIMZIN
 70
     0
  9
$DIMBLK
  1

  9
$DIMASO
 70
     1
  9
$DIMSHO
 70
     1
  9
$DIMPOST
  1

  9
$DIMAPOST
  1

  9
$DIMALT
 70
     0
  9
$DIMALTD
 70
     2
  9
$DIMALTF
 40
25.4
  9
$DIMLFAC
 40
1.0
  9
$DIMTOFL
 70
     0
  9
$DIMTVP
 40
0.0
  9
$DIMTIX
 70
     0
  9
$DIMSOXD
 70
     0
  9
$DIMSAH
 70
     0
  9
$DIMBLK1
  1

  9
$DIMBLK2
  1

  9
$DIMSTYLE
  2
STANDARD
  9
$DIMCLRD
 70
     0
  9
$DIMCLRE
 70
     0
  9
$DIMCLRT
 70
     0
  9
$DIMTFAC
 40
1.0
  9
$DIMGAP
 40
0.09
  9
$DIMJUST
 70
     0
  9
$DIMSD1
 70
     0
  9
$DIMSD2
 70
     0
  9
$DIMTOLJ
 70
     1
  9
$DIMTZIN
 70
     0
  9
$DIMALTZ
 70
     0
  9
$DIMALTTZ
 70
     0
  9
$DIMFIT
 70
     3
  9
$DIMUPT
 70
     0
  9
$DIMUNIT
 70
     2
  9
$DIMDEC
 70
     4
  9
$DIMTDEC
 70
     4
  9
$DIMALTU
 70
     2
  9
$DIMALTTD
 70
     2
  9
$DIMTXSTY
  7
STANDARD
  9
$DIMAUNIT
 70
     0
  9
$LUNITS
 70
     2
  9
$LUPREC
 70
     4
  9
$SKETCHINC
 40
0.1
  9
$FILLETRAD
 40
0.5
  9
$AUNITS
 70
     0
  9
$AUPREC
 70
     0
  9
$MENU
  1
.
  9
$ELEVATION
 40
0.0
  9
$PELEVATION
 40
0.0
  9
$THICKNESS
 40
0.0
  9
$LIMCHECK
 70
     0
  9
$CHAMFERA
 40
0.5
  9
$CHAMFERB
 40
0.5
  9
$CHAMFERC
 40
1.0
  9
$CHAMFERD
 40
0.0
  9
$SKPOLY
 70
     0
  9
$TDCREATE
 40
2457798.477662025
  9
$TDUPDATE
 40
2457798.477662025
  9
$TDINDWG
 40
0.0000000116
  9
$TDUSRTIMER
 40
0.0000000116
  9
$USRTIMER
 70
     1
  9
$ANGBASE
 50
0.0
  9
$ANGDIR
 70
     0
  9
$PDMODE
 70
     0
  9
$PDSIZE
 40
0.0
  9
$PLINEWID
 40
0.0
  9
$COORDS
 70
     1
  9
$SPLFRAME
 70
     0
  9
$SPLINETYPE
 70
     6
  9
$SPLINESEGS
 70
     8
  9
$ATTDIA
 70
     0
  9
$ATTREQ
 70
     1
  9
$HANDLING
 70
     1
  9
$HANDSEED
  5
17D
  9
$SURFTAB1
 70
     6
  9
$SURFTAB2
 70
     6
  9
$SURFTYPE
 70
     6
  9
$SURFU
 70
     6
  9
$SURFV
 70
     6
  9
$UCSNAME
  2

  9
$UCSORG
 10
0.0
 20
0.0
 30
0.0
  9
$UCSXDIR
 10
1.0
 20
0.0
 30
0.0
  9
$UCSYDIR
 10
0.0
 20
1.0
 30
0.0
  9
$PUCSNAME
  2

  9
$PUCSORG
 10
0.0
 20
0.0
 30
0.0
  9
$PUCSXDIR
 10
1.0
 20
0.0
 30
0.0
  9
$PUCSYDIR
 10
0.0
 20
1.0
 30
0.0
  9
$USERI1
 70
     0
  9
$USERI2
 70
     0
  9
$USERI3
 70
     0
  9
$USERI4
 70
     0
  9
$USERI5
 70
     0
  9
$USERR1
 40
0.0
  9
$USERR2
 40
0.0
  9
$USERR3
 40
0.0
  9
$USERR4
 40
0.0
  9
$USERR5
 40
0.0
  9
$WORLDVIEW
 70
     1
  9
$SHADEDGE
 70
     3
  9
$SHADEDIF
 70
    70
  9
$TILEMODE
 70
     1
  9
$MAXACTVP
 70
    64
  9
$PINSBASE
 10
0.0
 20
0.0
 30
0.0
  9
$PLIMCHECK
 70
     0
  9
$PEXTMIN
 10
1.000000000000000E+20
 20
1.000000000000000E+20
 30
1.000000000000000E+20
  9
$PEXTMAX
 10
-1.000000000000000E+20
 20
-1.000000000000000E+20
 30
-1.000000000000000E+20
  9
$PLIMMIN
 10
0.0
 20
0.0
  9
$PLIMMAX
 10
12.0
 20
9.0
  9
$UNITMODE
 70
     0
  9
$VISRETAIN
 70
     1
  9
$PLINEGEN
 70
     0
  9
$PSLTSCALE
 70
     1
  9
$TREEDEPTH
 70
  3020
  9
$PICKSTYLE
 70
     1
  9
$CMLSTYLE
  2
STANDARD
  9
$CMLJUST
 70
     0
  9
$CMLSCALE
 40
1.0
  9
$PROXYGRAPHICS
 70
     1
  9
$MEASUREMENT
 70
     0
  0
ENDSEC
  0
SECTION
  2
CLASSES
  0
CLASS
  1
ACDBDICTIONARYWDFLT
  2
AcDbDictionaryWithDefault
  3
ObjectDBX Classes
 90
        0
280
     0
281
     0
  0
CLASS
  1
VISUALSTYLE
  2
AcDbVisualStyle
  3
ObjectDBX Classes
 90
     4095
280
     0
281
     0
  0
CLASS
  1
MATERIAL
  2
AcDbMaterial
  3
ObjectDBX Classes
 90
     1153
280
     0
281
     0
  0
CLASS
  1
SUN
  2
AcDbSun
  3
SCENEOE
 90
     1024
280
     0
281
     0
  0
CLASS
  1
DICTIONARYVAR
  2
AcDbDictionaryVar
  3
ObjectDBX Classes
 90
        0
280
     0
281
     0
  0
CLASS
  1
XRECORD
  2
AcDbXrecord
  3
AutoCAD 2000
 90
        0
280
     0
281
     0
  0
CLASS
  1
LWPOLYLINE
  2
AcDbPolyline
  3
AutoCAD 2000
 90
        0
280
     0
281
     1
  0
CLASS
  1
HATCH
  2
AcDbHatch
  3
AutoCAD 2000
 90
        0
280
     0
281
     1
  0
CLASS
  1
ACDBPLACEHOLDER
  2
AcDbPlaceHolder
  3
ObjectDBX Classes
 90
        0
280
     0
281
     0
  0
CLASS
  1
LAYOUT
  2
AcDbLayout
  3
ObjectDBX Classes
 90
        0
280
     0
281
     0
  0
ENDSEC
  0
SECTION
  2
TABLES
  0
TABLE
  2
VPORT
  5
8
330
0
100
AcDbSymbolTable
 70
     1
  0
VPORT
  5
29
330
8
100
AcDbSymbolTableRecord
100
AcDbViewportTableRecord
  2
*ACTIVE
 70
     0
 10
0.0
 20
0.0
 11
1.0
 21
1.0
 12
0.0
 22
0.0
 13
0.0
 23
0.0
 14
0.5
 24
0.5
 15
0.5
 25
0.5
 16
0.0
 26
0.0
 36
1.0
 17
238.6541666070032
 27
120.4736110809927
 37
0.0
 40
246.5916666050188
 41
1.011444921316166
 42
50.0
 43
0.0
 44
0.0
 50
0.0
 51
0.0
 71
     0
 72
   100
 73
     1
 74
     3
 75
     0
 76
     0
 77
     0
 78
     0
  0
ENDTAB
  0
TABLE
  2
LTYPE
  5
5
330
0
100
AcDbSymbolTable
 70
     1
  0
LTYPE
  5
14
330
5
100
AcDbSymbolTableRecord
100
AcDbLinetypeTableRecord
  2
BYBLOCK
 70
     0
  3

 72
    65
 73
     0
 40
0.0
  0
LTYPE
  5
15
330
5
100
AcDbSymbolTableRecord
100
AcDbLinetypeTableRecord
  2
BYLAYER
 70
     0
  3

 72
    65
 73
     0
 40
0.0
  0
LTYPE
  5
16
330
5
100
AcDbSymbolTableRecord
100
AcDbLinetypeTableRecord
  2
CONTINUOUS
 70
     0
  3
Solid line
 72
    65
 73
     0
 40
0.0
  0
ENDTAB
  0
TABLE
  2
LAYER
  5
2
330
0
100
AcDbSymbolTable
 70
     3
  0
LAYER
  5
10
330
2
100
AcDbSymbolTableRecord
100
AcDbLayerTableRecord
  2
0
 70
     0
 62
     7
  6
CONTINUOUS
  0
LAYER
  5
40
330
2
100
AcDbSymbolTableRecord
100
AcDbLayerTableRecord
  2
LAYER_8
 70
     0
 62
     7
  6
CONTINUOUS
  0
LAYER
  5
14A
330
2
100
AcDbSymbolTableRecord
100
AcDbLayerTableRecord
  2
SHEET_SIZE
 70
     0
 62
     7
  6
CONTINUOUS
  0
ENDTAB
  0
TABLE
  2
STYLE
  5
3
330
0
100
AcDbSymbolTable
 70
     1
  0
STYLE
  5
11
330
3
100
AcDbSymbolTableRecord
100
AcDbTextStyleTableRecord
  2
STANDARD
 70
     0
 40
0.0
 41
1.0
 50
0.0
 71
     0
 42
0.2
  3
txt
  4

  0
ENDTAB
  0
TABLE
  2
VIEW
  5
6
330
0
100
AcDbSymbolTable
 70
     0
  0
ENDTAB
  0
TABLE
  2
UCS
  5
7
330
0
100
AcDbSymbolTable
 70
     0
  0
ENDTAB
  0
TABLE
  2
APPID
  5
9
330
0
100
AcDbSymbolTable
 70
     1
  0
APPID
  5
12
330
9
100
AcDbSymbolTableRecord
100
AcDbRegAppTableRecord
  2
ACAD
 70
     0
  0
ENDTAB
  0
TABLE
  2
DIMSTYLE
  5
A
330
0
100
AcDbSymbolTable
 70
     1
  0
DIMSTYLE
105
27
330
A
100
AcDbSymbolTableRecord
100
AcDbDimStyleTableRecord
  2
STANDARD
 70
     0
  3

  4

  5

  6

  7

 40
1.0
 41
0.18
 42
0.0625
 43
0.38
 44
0.18
 45
0.0
 46
0.0
 47
0.0
 48
0.0
140
0.18
141
0.09
142
0.0
143
25.4
144
1.0
145
0.0
146
1.0
147
0.09
 71
     0
 72
     0
 73
     1
 74
     1
 75
     0
 76
     0
 77
     0
 78
     0
170
     0
171
     2
172
     0
173
     0
174
     0
175
     0
176
     0
177
     0
178
     0
270
     2
271
     4
272
     4
273
     2
274
     2
340
11
275
     0
280
     0
281
     0
282
     0
283
     1
284
     0
285
     0
286
     0
287
     3
288
     0
  0
ENDTAB
  0
TABLE
  2
BLOCK_RECORD
  5
1
330
0
100
AcDbSymbolTable
 70
    10
  0
BLOCK_RECORD
  5
1F
330
1
100
AcDbSymbolTableRecord
100
AcDbBlockTableRecord
  2
*MODEL_SPACE
  0
BLOCK_RECORD
  5
1B
330
1
100
AcDbSymbolTableRecord
100
AcDbBlockTableRecord
  2
*PAPER_SPACE
  0
BLOCK_RECORD
  5
41
330
1
100
AcDbSymbolTableRecord
100
AcDbBlockTableRecord
  2
BLOCK_2
  0
BLOCK_RECORD
  5
86
330
1
100
AcDbSymbolTableRecord
100
AcDbBlockTableRecord
  2
BLOCK_3
  0
BLOCK_RECORD
  5
B5
330
1
100
AcDbSymbolTableRecord
100
AcDbBlockTableRecord
  2
BLOCK_4
  0
BLOCK_RECORD
  5
C3
330
1
100
AcDbSymbolTableRecord
100
AcDbBlockTableRecord
  2
BLOCK_5
  0
BLOCK_RECORD
  5
D1
330
1
100
AcDbSymbolTableRecord
100
AcDbBlockTableRecord
  2
BLOCK_6
  0
BLOCK_RECORD
  5
D6
330
1
100
AcDbSymbolTableRecord
100
AcDbBlockTableRecord
  2
BLOCK_7
  0
BLOCK_RECORD
  5
DC
330
1
100
AcDbSymbolTableRecord
100
AcDbBlockTableRecord
  2
BLOCK_8
  0
BLOCK_RECORD
  5
127
330
1
100
AcDbSymbolTableRecord
100
AcDbBlockTableRecord
  2
BLOCK_9
  0
BLOCK_RECORD
  5
12B
330
1
100
AcDbSymbolTableRecord
100
AcDbBlockTableRecord
  2
BLOCK_10
  0
ENDTAB
  0
ENDSEC
  0
SECTION
  2
BLOCKS
  0
BLOCK
  5
20
330
1F
100
AcDbEntity
  8
0
100
AcDbBlockBegin
  2
*MODEL_SPACE
 70
     0
 10
0.0
 20
0.0
 30
0.0
  3
*MODEL_SPACE
  1

  0
ENDBLK
  5
21
330
1F
100
AcDbEntity
  8
0
100
AcDbBlockEnd
  0
BLOCK
  5
1C
330
1B
100
AcDbEntity
 67
     1
  8
0
100
AcDbBlockBegin
  2
*PAPER_SPACE
 70
     0
 10
0.0
 20
0.0
 30
0.0
  3
*PAPER_SPACE
  1

  0
ENDBLK
  5
1D
330
1B
100
AcDbEntity
 67
     1
  8
0
100
AcDbBlockEnd
  0
BLOCK
  5
43
330
41
100
AcDbEntity
  8
0
100
AcDbBlockBegin
  2
BLOCK_2
 70
     0
 10
0.0
 20
0.0
 30
0.0
  3
BLOCK_2
  1

  0
POLYLINE
  5
45
330
41
100
AcDbEntity
  8
LAYER_8
 62
   250
100
AcDb2dPolyline
 66
     1
 10
0.0
 20
0.0
 30
0.0
  0
VERTEX
  5
46
330
45
100
AcDbEntity
  8
LAYER_8
 62
   250
100
AcDbVertex
100
AcDb2dVertex
 10
227.3434553705469
 20
63.99513123130857
 30
0.0
  0
VERTEX
  5
47
330
45
100
AcDbEntity
  8
LAYER_8
 62
   250
100
AcDbVertex
100
AcDb2dVertex
 10
267.3434553605474
 20
63.99513123130857
 30
0.0
  0
VERTEX
  5
48
330
45
100
AcDbEntity
  8
LAYER_8
 62
   250
100
AcDbVertex
100
AcDb2dVertex
 10
267.3434553605474
 20
165.6025992232187
 30
0.0
  0
VERTEX
  5
49
330
45
100
AcDbEntity
  8
LAYER_8
 62
   250
100
AcDbVertex
100
AcDb2dVertex
 10
248.8800702981825
 20
165.6025992232187
 30
0.0
  0
VERTEX
  5
4A
330
45
100
AcDbEntity
  8
LAYER_8
 62
   250
100
AcDbVertex
100
AcDb2dVertex
 10
248.8800702981825
 20
202.0071997743782
 30
0.0
  0
VERTEX
  5
4B
330
45
100
AcDbEntity
  8
LAYER_8
 62
   250
100
AcDbVertex
100
AcDb2dVertex
 10
205.8068404429116
 20
202.0071997743782
 30
0.0
  0
VERTEX
  5
4C
330
45
100
AcDbEntity
  8
LAYER_8
 62
   250
100
AcDbVertex
100
AcDb2dVertex
 10
205.8068404429116
 20
165.6025992232187
 30
0.0
  0
VERTEX
  5
4D
330
45
100
AcDbEntity
  8
LAYER_8
 62
   250
100
AcDbVertex
100
AcDb2dVertex
 10
187.3434553805476
 20
165.6025992232187
 30
0.0
  0
VERTEX
  5
4E
330
45
100
AcDbEntity
  8
LAYER_8
 62
   250
100
AcDbVertex
100
AcDb2dVertex
 10
187.3434553805476
 20
63.99513123130857
 30
0.0
  0
VERTEX
  5
4F
330
45
100
AcDbEntity
  8
LAYER_8
 62
   250
100
AcDbVertex
100
AcDb2dVertex
 10
227.3434553705469
 20
63.99513123130857
 30
0.0
  0
SEQEND
  5
50
330
45
100
AcDbEntity
  8
LAYER_8
 62
   250
  0
POLYLINE
  5
51
330
41
100
AcDbEntity
  8
LAYER_8
 62
   250
100
AcDb2dPolyline
 66
     1
 10
0.0
 20
0.0
 30
0.0
  0
VERTEX
  5
52
330
51
100
AcDbEntity
  8
LAYER_8
 62
   250
100
AcDbVertex
100
AcDb2dVertex
 10
241.3965982377863
 20
145.553472826708
 30
0.0
  0
VERTEX
  5
53
330
51
100
AcDbEntity
  8
LAYER_8
 62
   250
100
AcDbVertex
100
AcDb2dVertex
 10
241.3965982377863
 20
157.3200657103046
 30
0.0
  0
VERTEX
  5
54
330
51
100
AcDbEntity
  8
LAYER_8
 62
   250
100
AcDbVertex
100
AcDb2dVertex
 10
213.0770018060807
 20
157.3200657103046
 30
0.0
  0
VERTEX
  5
55
330
51
100
AcDbEntity
  8
LAYER_8
 62
   250
100
AcDbVertex
100
AcDb2dVertex
 10
213.0770018060807
 20
145.553472826708
 30
0.0
  0
VERTEX
  5
56
330
51
100
AcDbEntity
  8
LAYER_8
 62
   250
100
AcDbVertex
100
AcDb2dVertex
 10
241.3965982377863
 20
145.553472826708
 30
0.0
  0
SEQEND
  5
57
330
51
100
AcDbEntity
  8
LAYER_8
 62
   250
  0
POLYLINE
  5
58
330
41
100
AcDbEntity
  8
LAYER_8
 62
   250
100
AcDb2dPolyline
 66
     1
 10
0.0
 20
0.0
 30
0.0
  0
VERTEX
  5
59
330
58
100
AcDbEntity
  8
LAYER_8
 62
   250
100
AcDbVertex
100
AcDb2dVertex
 10
241.3965982377863
 20
72.56071019287691
 30
0.0
  0
VERTEX
  5
5A
330
58
100
AcDbEntity
  8
LAYER_8
 62
   250
100
AcDbVertex
100
AcDb2dVertex
 10
241.3965982377863
 20
84.32730307647284
 30
0.0
  0
VERTEX
  5
5B
330
58
100
AcDbEntity
  8
LAYER_8
 62
   250
100
AcDbVertex
100
AcDb2dVertex
 10
213.0770018060807
 20
84.32730307647284
 30
0.0
  0
VERTEX
  5
5C
330
58
100
AcDbEntity
  8
LAYER_8
 62
   250
100
AcDbVertex
100
AcDb2dVertex
 10
213.0770018060807
 20
72.56071019287691
 30
0.0
  0
VERTEX
  5
5D
330
58
100
AcDbEntity
  8
LAYER_8
 62
   250
100
AcDbVertex
100
AcDb2dVertex
 10
241.3965982377863
 20
72.56071019287691
 30
0.0
  0
SEQEND
  5
5E
330
58
100
AcDbEntity
  8
LAYER_8
 62
   250
  0
POLYLINE
  5
5F
330
41
100
AcDbEntity
  8
LAYER_8
 62
   250
100
AcDb2dPolyline
 66
     1
 10
0.0
 20
0.0
 30
0.0
  0
VERTEX
  5
60
330
5F
100
AcDbEntity
  8
LAYER_8
 62
   250
100
AcDbVertex
100
AcDb2dVertex
 10
241.3965982377863
 20
137.7755554968735
 30
0.0
  0
VERTEX
  5
61
330
5F
100
AcDbEntity
  8
LAYER_8
 62
   250
100
AcDbVertex
100
AcDb2dVertex
 10
249.7728169006842
 20
129.3993368339749
 30
0.0
  0
VERTEX
  5
62
330
5F
100
AcDbEntity
  8
LAYER_8
 62
   250
100
AcDbVertex
100
AcDb2dVertex
 10
249.7728169006842
 20
100.2820052915177
 30
0.0
  0
VERTEX
  5
63
330
5F
100
AcDbEntity
  8
LAYER_8
 62
   250
100
AcDbVertex
100
AcDb2dVertex
 10
241.197164460098
 20
91.70635285093093
 30
0.0
  0
VERTEX
  5
64
330
5F
100
AcDbEntity
  8
LAYER_8
 62
   250
100
AcDbVertex
100
AcDb2dVertex
 10
213.0770018060807
 20
91.70635285093093
 30
0.0
  0
VERTEX
  5
65
330
5F
100
AcDbEntity
  8
LAYER_8
 62
   250
100
AcDbVertex
100
AcDb2dVertex
 10
204.800500032026
 20
99.98285462498603
 30
0.0
  0
VERTEX
  5
66
330
5F
100
AcDbEntity
  8
LAYER_8
 62
   250
100
AcDbVertex
100
AcDb2dVertex
 10
204.800500032026
 20
129.3993368339755
 30
0.0
  0
VERTEX
  5
67
330
5F
100
AcDbEntity
  8
LAYER_8
 62
   250
100
AcDbVertex
100
AcDb2dVertex
 10
212.5285589174384
 20
137.1273957193877
 30
0.0
  0
VERTEX
  5
68
330
5F
100
AcDbEntity
  8
LAYER_8
 62
   250
100
AcDbVertex
100
AcDb2dVertex
 10
241.3965982377863
 20
137.7755554968735
 30
0.0
  0
SEQEND
  5
69
330
5F
100
AcDbEntity
  8
LAYER_8
 62
   250
  0
POLYLINE
  5
6A
330
41
100
AcDbEntity
  8
LAYER_8
 62
   250
100
AcDb2dPolyline
 66
     1
 10
0.0
 20
0.0
 30
0.0
  0
VERTEX
  5
6B
330
6A
100
AcDbEntity
  8
LAYER_8
 62
   250
100
AcDbVertex
100
AcDb2dVertex
 10
252.4880897178544
 20
136.302085998262
 30
0.0
  0
VERTEX
  5
6C
330
6A
100
AcDbEntity
  8
LAYER_8
 62
   250
100
AcDbVertex
100
AcDb2dVertex
 10
252.4880897178544
 20
151.5534728252086
 30
0.0
  0
VERTEX
  5
6D
330
6A
100
AcDbEntity
  8
LAYER_8
 62
   250
100
AcDbVertex
100
AcDb2dVertex
 10
255.4880897171044
 20
151.5534728252086
 30
0.0
  0
VERTEX
  5
6E
330
6A
100
AcDbEntity
  8
LAYER_8
 62
   250
100
AcDbVertex
100
AcDb2dVertex
 10
255.4880897171044
 20
136.302085998262
 30
0.0
  0
VERTEX
  5
6F
330
6A
100
AcDbEntity
  8
LAYER_8
 62
   250
100
AcDbVertex
100
AcDb2dVertex
 10
252.4880897178544
 20
136.302085998262
 30
0.0
  0
SEQEND
  5
70
330
6A
100
AcDbEntity
  8
LAYER_8
 62
   250
  0
POLYLINE
  5
71
330
41
100
AcDbEntity
  8
LAYER_8
 62
   250
100
AcDb2dPolyline
 66
     1
 10
0.0
 20
0.0
 30
0.0
  0
VERTEX
  5
72
330
71
100
AcDbEntity
  8
LAYER_8
 62
   250
100
AcDbVertex
100
AcDb2dVertex
 10
252.4880897178544
 20
78.4440066346752
 30
0.0
  0
VERTEX
  5
73
330
71
100
AcDbEntity
  8
LAYER_8
 62
   250
100
AcDbVertex
100
AcDb2dVertex
 10
252.4880897178544
 20
93.69539346162111
 30
0.0
  0
VERTEX
  5
74
330
71
100
AcDbEntity
  8
LAYER_8
 62
   250
100
AcDbVertex
100
AcDb2dVertex
 10
255.4880897171044
 20
93.69539346162111
 30
0.0
  0
VERTEX
  5
75
330
71
100
AcDbEntity
  8
LAYER_8
 62
   250
100
AcDbVertex
100
AcDb2dVertex
 10
255.4880897171044
 20
78.4440066346752
 30
0.0
  0
VERTEX
  5
76
330
71
100
AcDbEntity
  8
LAYER_8
 62
   250
100
AcDbVertex
100
AcDb2dVertex
 10
252.4880897178544
 20
78.4440066346752
 30
0.0
  0
SEQEND
  5
77
330
71
100
AcDbEntity
  8
LAYER_8
 62
   250
  0
POLYLINE
  5
78
330
41
100
AcDbEntity
  8
LAYER_8
 62
   250
100
AcDb2dPolyline
 66
     1
 10
0.0
 20
0.0
 30
0.0
  0
VERTEX
  5
79
330
78
100
AcDbEntity
  8
LAYER_8
 62
   250
100
AcDbVertex
100
AcDb2dVertex
 10
197.9342591495965
 20
136.302085998262
 30
0.0
  0
VERTEX
  5
7A
330
78
100
AcDbEntity
  8
LAYER_8
 62
   250
100
AcDbVertex
100
AcDb2dVertex
 10
197.9342591495965
 20
151.5534728252086
 30
0.0
  0
VERTEX
  5
7B
330
78
100
AcDbEntity
  8
LAYER_8
 62
   250
100
AcDbVertex
100
AcDb2dVertex
 10
200.9342591488471
 20
151.5534728252086
 30
0.0
  0
VERTEX
  5
7C
330
78
100
AcDbEntity
  8
LAYER_8
 62
   250
100
AcDbVertex
100
AcDb2dVertex
 10
200.9342591488471
 20
136.302085998262
 30
0.0
  0
VERTEX
  5
7D
330
78
100
AcDbEntity
  8
LAYER_8
 62
   250
100
AcDbVertex
100
AcDb2dVertex
 10
197.9342591495965
 20
136.302085998262
 30
0.0
  0
SEQEND
  5
7E
330
78
100
AcDbEntity
  8
LAYER_8
 62
   250
  0
POLYLINE
  5
7F
330
41
100
AcDbEntity
  8
LAYER_8
 62
   250
100
AcDb2dPolyline
 66
     1
 10
0.0
 20
0.0
 30
0.0
  0
VERTEX
  5
80
330
7F
100
AcDbEntity
  8
LAYER_8
 62
   250
100
AcDbVertex
100
AcDb2dVertex
 10
197.9342591495965
 20
78.4440066346752
 30
0.0
  0
VERTEX
  5
81
330
7F
100
AcDbEntity
  8
LAYER_8
 62
   250
100
AcDbVertex
100
AcDb2dVertex
 10
197.9342591495965
 20
93.69539346162111
 30
0.0
  0
VERTEX
  5
82
330
7F
100
AcDbEntity
  8
LAYER_8
 62
   250
100
AcDbVertex
100
AcDb2dVertex
 10
200.9342591488471
 20
93.69539346162111
 30
0.0
  0
VERTEX
  5
83
330
7F
100
AcDbEntity
  8
LAYER_8
 62
   250
100
AcDbVertex
100
AcDb2dVertex
 10
200.9342591488471
 20
78.4440066346752
 30
0.0
  0
VERTEX
  5
84
330
7F
100
AcDbEntity
  8
LAYER_8
 62
   250
100
AcDbVertex
100
AcDb2dVertex
 10
197.9342591495965
 20
78.4440066346752
 30
0.0
  0
SEQEND
  5
85
330
7F
100
AcDbEntity
  8
LAYER_8
 62
   250
  0
ENDBLK
  5
44
330
41
100
AcDbEntity
  8
0
100
AcDbBlockEnd
  0
BLOCK
  5
88
330
86
100
AcDbEntity
  8
0
100
AcDbBlockBegin
  2
BLOCK_3
 70
     0
 10
0.0
 20
0.0
 30
0.0
  3
BLOCK_3
  1

  0
POLYLINE
  5
8A
330
86
100
AcDbEntity
  8
LAYER_8
 62
   250
100
AcDb2dPolyline
 66
     1
 10
0.0
 20
0.0
 30
0.0
  0
VERTEX
  5
8B
330
8A
100
AcDbEntity
  8
LAYER_8
 62
   250
100
AcDbVertex
100
AcDb2dVertex
 10
153.8208036562697
 20
229.788445122034
 30
0.0
  0
VERTEX
  5
8C
330
8A
100
AcDbEntity
  8
LAYER_8
 62
   250
100
AcDbVertex
100
AcDb2dVertex
 10
153.8208036562697
 20
214.5370582950881
 30
0.0
  0
VERTEX
  5
8D
330
8A
100
AcDbEntity
  8
LAYER_8
 62
   250
100
AcDbVertex
100
AcDb2dVertex
 10
150.8208036570197
 20
214.5370582950881
 30
0.0
  0
VERTEX
  5
8E
330
8A
100
AcDbEntity
  8
LAYER_8
 62
   250
100
AcDbVertex
100
AcDb2dVertex
 10
150.8208036570197
 20
229.788445122034
 30
0.0
  0
VERTEX
  5
8F
330
8A
100
AcDbEntity
  8
LAYER_8
 62
   250
100
AcDbVertex
100
AcDb2dVertex
 10
153.8208036562697
 20
229.788445122034
 30
0.0
  0
SEQEND
  5
90
330
8A
100
AcDbEntity
  8
LAYER_8
 62
   250
  0
POLYLINE
  5
91
330
86
100
AcDbEntity
  8
LAYER_8
 62
   250
100
AcDb2dPolyline
 66
     1
 10
0.0
 20
0.0
 30
0.0
  0
VERTEX
  5
92
330
91
100
AcDbEntity
  8
LAYER_8
 62
   250
100
AcDbVertex
100
AcDb2dVertex
 10
135.6531612732246
 20
200.549713278308
 30
0.0
  0
VERTEX
  5
93
330
91
100
AcDbEntity
  8
LAYER_8
 62
   250
100
AcDbVertex
100
AcDb2dVertex
 10
135.6531612732246
 20
185.298326451362
 30
0.0
  0
VERTEX
  5
94
330
91
100
AcDbEntity
  8
LAYER_8
 62
   250
100
AcDbVertex
100
AcDb2dVertex
 10
132.6531612739747
 20
185.298326451362
 30
0.0
  0
VERTEX
  5
95
330
91
100
AcDbEntity
  8
LAYER_8
 62
   250
100
AcDbVertex
100
AcDb2dVertex
 10
132.6531612739747
 20
200.549713278308
 30
0.0
  0
VERTEX
  5
96
330
91
100
AcDbEntity
  8
LAYER_8
 62
   250
100
AcDbVertex
100
AcDb2dVertex
 10
135.6531612732246
 20
200.549713278308
 30
0.0
  0
SEQEND
  5
97
330
91
100
AcDbEntity
  8
LAYER_8
 62
   250
  0
POLYLINE
  5
98
330
86
100
AcDbEntity
  8
LAYER_8
 62
   250
100
AcDb2dPolyline
 66
     1
 10
0.0
 20
0.0
 30
0.0
  0
VERTEX
  5
99
330
98
100
AcDbEntity
  8
LAYER_8
 62
   250
100
AcDbVertex
100
AcDb2dVertex
 10
202.3735505676846
 20
171.3692778742508
 30
0.0
  0
VERTEX
  5
9A
330
98
100
AcDbEntity
  8
LAYER_8
 62
   250
100
AcDbVertex
100
AcDb2dVertex
 10
194.9369243895308
 20
206.8791904833746
 30
0.0
  0
VERTEX
  5
9B
330
98
100
AcDbEntity
  8
LAYER_8
 62
   250
100
AcDbVertex
100
AcDb2dVertex
 10
176.7171708743917
 20
236.6256951959901
 30
0.0
  0
VERTEX
  5
9C
330
98
100
AcDbEntity
  8
LAYER_8
 62
   250
100
AcDbVertex
100
AcDb2dVertex
 10
161.7509655355226
 20
236.6256951959901
 30
0.0
  0
VERTEX
  5
9D
330
98
100
AcDbEntity
  8
LAYER_8
 62
   250
100
AcDbVertex
100
AcDb2dVertex
 10
146.7847601966535
 20
236.6256951959901
 30
0.0
  0
VERTEX
  5
9E
330
98
100
AcDbEntity
  8
LAYER_8
 62
   250
100
AcDbVertex
100
AcDb2dVertex
 10
128.5650066815144
 20
206.8791904833746
 30
0.0
  0
VERTEX
  5
9F
330
98
100
AcDbEntity
  8
LAYER_8
 62
   250
100
AcDbVertex
100
AcDb2dVertex
 10
121.1283805033605
 20
171.3692778742508
 30
0.0
  0
VERTEX
  5
A0
330
98
100
AcDbEntity
  8
LAYER_8
 62
   250
100
AcDbVertex
100
AcDb2dVertex
 10
140.0917794108376
 20
171.3692778742508
 30
0.0
  0
VERTEX
  5
A1
330
98
100
AcDbEntity
  8
LAYER_8
 62
   250
100
AcDbVertex
100
AcDb2dVertex
 10
140.0917794108376
 20
202.7477458500759
 30
0.0
  0
VERTEX
  5
A2
330
98
100
AcDbEntity
  8
LAYER_8
 62
   250
100
AcDbVertex
100
AcDb2dVertex
 10
161.7509655355226
 20
202.7477458500759
 30
0.0
  0
VERTEX
  5
A3
330
98
100
AcDbEntity
  8
LAYER_8
 62
   250
100
AcDbVertex
100
AcDb2dVertex
 10
183.4101516602076
 20
202.7477458500759
 30
0.0
  0
VERTEX
  5
A4
330
98
100
AcDbEntity
  8
LAYER_8
 62
   250
100
AcDbVertex
100
AcDb2dVertex
 10
183.4101516602076
 20
171.3692778742508
 30
0.0
  0
VERTEX
  5
A5
330
98
100
AcDbEntity
  8
LAYER_8
 62
   250
100
AcDbVertex
100
AcDb2dVertex
 10
202.3735505676846
 20
171.3692778742508
 30
0.0
  0
SEQEND
  5
A6
330
98
100
AcDbEntity
  8
LAYER_8
 62
   250
  0
POLYLINE
  5
A7
330
86
100
AcDbEntity
  8
LAYER_8
 62
   250
100
AcDb2dPolyline
 66
     1
 10
0.0
 20
0.0
 30
0.0
  0
VERTEX
  5
A8
330
A7
100
AcDbEntity
  8
LAYER_8
 62
   250
100
AcDbVertex
100
AcDb2dVertex
 10
169.6811248750097
 20
229.78844512259
 30
0.0
  0
VERTEX
  5
A9
330
A7
100
AcDbEntity
  8
LAYER_8
 62
   250
100
AcDbVertex
100
AcDb2dVertex
 10
169.6811248743253
 20
214.5370582956438
 30
0.0
  0
VERTEX
  5
AA
330
A7
100
AcDbEntity
  8
LAYER_8
 62
   250
100
AcDbVertex
100
AcDb2dVertex
 10
172.6811248735749
 20
214.537058295509
 30
0.0
  0
VERTEX
  5
AB
330
A7
100
AcDbEntity
  8
LAYER_8
 62
   250
100
AcDbVertex
100
AcDb2dVertex
 10
172.6811248742596
 20
229.7884451224553
 30
0.0
  0
VERTEX
  5
AC
330
A7
100
AcDbEntity
  8
LAYER_8
 62
   250
100
AcDbVertex
100
AcDb2dVertex
 10
169.6811248750097
 20
229.78844512259
 30
0.0
  0
SEQEND
  5
AD
330
A7
100
AcDbEntity
  8
LAYER_8
 62
   250
  0
POLYLINE
  5
AE
330
86
100
AcDbEntity
  8
LAYER_8
 62
   250
100
AcDb2dPolyline
 66
     1
 10
0.0
 20
0.0
 30
0.0
  0
VERTEX
  5
AF
330
AE
100
AcDbEntity
  8
LAYER_8
 62
   250
100
AcDbVertex
100
AcDb2dVertex
 10
187.8487672567424
 20
200.5497132780484
 30
0.0
  0
VERTEX
  5
B0
330
AE
100
AcDbEntity
  8
LAYER_8
 62
   250
100
AcDbVertex
100
AcDb2dVertex
 10
187.8487672560577
 20
185.2983264511022
 30
0.0
  0
VERTEX
  5
B1
330
AE
100
AcDbEntity
  8
LAYER_8
 62
   250
100
AcDbVertex
100
AcDb2dVertex
 10
190.8487672553077
 20
185.2983264509674
 30
0.0
  0
VERTEX
  5
B2
330
AE
100
AcDbEntity
  8
LAYER_8
 62
   250
100
AcDbVertex
100
AcDb2dVertex
 10
190.8487672559927
 20
200.5497132779136
 30
0.0
  0
VERTEX
  5
B3
330
AE
100
AcDbEntity
  8
LAYER_8
 62
   250
100
AcDbVertex
100
AcDb2dVertex
 10
187.8487672567424
 20
200.5497132780484
 30
0.0
  0
SEQEND
  5
B4
330
AE
100
AcDbEntity
  8
LAYER_8
 62
   250
  0
ENDBLK
  5
89
330
86
100
AcDbEntity
  8
0
100
AcDbBlockEnd
  0
BLOCK
  5
B7
330
B5
100
AcDbEntity
  8
0
100
AcDbBlockBegin
  2
BLOCK_4
 70
     0
 10
0.0
 20
0.0
 30
0.0
  3
BLOCK_4
  1

  0
POLYLINE
  5
B9
330
B5
100
AcDbEntity
  8
LAYER_8
 62
   250
100
AcDb2dPolyline
 66
     1
 10
0.0
 20
0.0
 30
0.0
  0
VERTEX
  5
BA
330
B9
100
AcDbEntity
  8
LAYER_8
 62
   250
100
AcDbVertex
100
AcDb2dVertex
 10
169.6901655334092
 20
16.49016887937209
 30
0.0
  0
VERTEX
  5
BB
330
B9
100
AcDbEntity
  8
LAYER_8
 62
   250
100
AcDbVertex
100
AcDb2dVertex
 10
166.6901655341589
 20
16.49016887937209
 30
0.0
  0
VERTEX
  5
BC
330
B9
100
AcDbEntity
  8
LAYER_8
 62
   250
100
AcDbVertex
100
AcDb2dVertex
 10
166.6901655341589
 20
23.49016887762242
 30
0.0
  0
VERTEX
  5
BD
330
B9
100
AcDbEntity
  8
LAYER_8
 62
   250
100
AcDbVertex
100
AcDb2dVertex
 10
169.6901655334092
 20
23.49016887762242
 30
0.0
  0
VERTEX
  5
BE
330
B9
100
AcDbEntity
  8
LAYER_8
 62
   250
100
AcDbVertex
100
AcDb2dVertex
 10
169.6901655334092
 20
16.49016887937209
 30
0.0
  0
SEQEND
  5
BF
330
B9
100
AcDbEntity
  8
LAYER_8
 62
   250
  0
SPLINE
  5
C0
330
B5
100
AcDbEntity
  8
LAYER_8
 62
   250
100
AcDbSpline
210
0.0
220
0.0
230
1.0
 70
    11
 71
     3
 72
    17
 73
    13
 74
     0
 42
0.0000000001
 43
0.0000000001
 12
1.0
 22
0.0
 32
0.0
 13
1.0
 23
0.0
 33
0.0
 40
0.0
 40
0.0
 40
0.0
 40
0.0
 40
1.0
 40
1.0
 40
1.0
 40
2.0
 40
2.0
 40
2.0
 40
3.0
 40
3.0
 40
3.0
 40
4.0
 40
4.0
 40
4.0
 40
4.0
 10
182.5021970682422
 20
19.63736887859476
 30
0.0
 10
182.5021970682422
 20
17.28317137570572
 30
0.0
 10
180.593742915909
 20
15.37471722337287
 30
0.0
 10
178.23954541302
 20
15.37471722337287
 30
0.0
 10
175.8853479101309
 20
15.37471722337287
 30
0.0
 10
173.9768937577978
 20
17.28317137570572
 30
0.0
 10
173.9768937577978
 20
19.63736887859476
 30
0.0
 10
173.9768937577978
 20
21.99156638148379
 30
0.0
 10
175.8853479101309
 20
23.90002053381664
 30
0.0
 10
178.23954541302
 20
23.90002053381664
 30
0.0
 10
180.593742915909
 20
23.90002053381664
 30
0.0
 10
182.5021970682422
 20
21.99156638148379
 30
0.0
 10
182.5021970682422
 20
19.63736887859476
 30
0.0
  0
SPLINE
  5
C1
330
B5
100
AcDbEntity
  8
LAYER_8
 62
   250
100
AcDbSpline
210
0.0
220
0.0
230
1.0
 70
    11
 71
     3
 72
    17
 73
    13
 74
     0
 42
0.0000000001
 43
0.0000000001
 12
1.0
 22
0.0
 32
0.0
 13
1.0
 23
0.0
 33
0.0
 40
0.0
 40
0.0
 40
0.0
 40
0.0
 40
1.0
 40
1.0
 40
1.0
 40
2.0
 40
2.0
 40
2.0
 40
3.0
 40
3.0
 40
3.0
 40
4.0
 40
4.0
 40
4.0
 40
4.0
 10
204.2515761907397
 20
19.63736887859476
 30
0.0
 10
204.2515761907397
 20
17.28317137570572
 30
0.0
 10
202.3431220384065
 20
15.37471722337287
 30
0.0
 10
199.9889245355175
 20
15.37471722337287
 30
0.0
 10
197.6347270326284
 20
15.37471722337287
 30
0.0
 10
195.7262728802953
 20
17.28317137570572
 30
0.0
 10
195.7262728802953
 20
19.63736887859476
 30
0.0
 10
195.7262728802953
 20
21.99156638148379
 30
0.0
 10
197.6347270326284
 20
23.90002053381664
 30
0.0
 10
199.9889245355175
 20
23.90002053381664
 30
0.0
 10
202.3431220384065
 20
23.90002053381664
 30
0.0
 10
204.2515761907397
 20
21.99156638148379
 30
0.0
 10
204.2515761907397
 20
19.63736887859476
 30
0.0
  0
SPLINE
  5
C2
330
B5
100
AcDbEntity
  8
LAYER_8
 62
   250
100
AcDbSpline
210
0.0
220
0.0
230
1.0
 70
    11
 71
     3
 72
    17
 73
    13
 74
     0
 42
0.0000000001
 43
0.0000000001
 12
1.0
 22
0.0
 32
0.0
 13
1.0
 23
0.0
 33
0.0
 40
0.0
 40
0.0
 40
0.0
 40
0.0
 40
1.0
 40
1.0
 40
1.0
 40
2.0
 40
2.0
 40
2.0
 40
3.0
 40
3.0
 40
3.0
 40
4.0
 40
4.0
 40
4.0
 40
4.0
 10
226.0009553132372
 20
19.63736887859476
 30
0.0
 10
226.0009553132372
 20
17.28317137570572
 30
0.0
 10
224.0925011609043
 20
15.37471722337287
 30
0.0
 10
221.7383036580147
 20
15.37471722337287
 30
0.0
 10
219.3841061551256
 20
15.37471722337287
 30
0.0
 10
217.4756520027928
 20
17.28317137570572
 30
0.0
 10
217.4756520027928
 20
19.63736887859476
 30
0.0
 10
217.4756520027928
 20
21.99156638148379
 30
0.0
 10
219.3841061551256
 20
23.90002053381664
 30
0.0
 10
221.7383036580147
 20
23.90002053381664
 30
0.0
 10
224.0925011609043
 20
23.90002053381664
 30
0.0
 10
226.0009553132372
 20
21.99156638148379
 30
0.0
 10
226.0009553132372
 20
19.63736887859476
 30
0.0
  0
ENDBLK
  5
B8
330
B5
100
AcDbEntity
  8
0
100
AcDbBlockEnd
  0
BLOCK
  5
C5
330
C3
100
AcDbEntity
  8
0
100
AcDbBlockBegin
  2
BLOCK_5
 70
     0
 10
0.0
 20
0.0
 30
0.0
  3
BLOCK_5
  1

  0
POLYLINE
  5
C7
330
C3
100
AcDbEntity
  8
LAYER_8
 62
   250
100
AcDb2dPolyline
 66
     1
 10
0.0
 20
0.0
 30
0.0
  0
VERTEX
  5
C8
330
C7
100
AcDbEntity
  8
LAYER_8
 62
   250
100
AcDbVertex
100
AcDb2dVertex
 10
239.6624552595391
 20
47.27646080200661
 30
0.0
  0
VERTEX
  5
C9
330
C7
100
AcDbEntity
  8
LAYER_8
 62
   250
100
AcDbVertex
100
AcDb2dVertex
 10
242.6624552587891
 20
47.27646080200661
 30
0.0
  0
VERTEX
  5
CA
330
C7
100
AcDbEntity
  8
LAYER_8
 62
   250
100
AcDbVertex
100
AcDb2dVertex
 10
242.6624552587891
 20
40.27646080375628
 30
0.0
  0
VERTEX
  5
CB
330
C7
100
AcDbEntity
  8
LAYER_8
 62
   250
100
AcDbVertex
100
AcDb2dVertex
 10
239.6624552595391
 20
40.27646080375628
 30
0.0
  0
VERTEX
  5
CC
330
C7
100
AcDbEntity
  8
LAYER_8
 62
   250
100
AcDbVertex
100
AcDb2dVertex
 10
239.6624552595391
 20
47.27646080200661
 30
0.0
  0
SEQEND
  5
CD
330
C7
100
AcDbEntity
  8
LAYER_8
 62
   250
  0
SPLINE
  5
CE
330
C3
100
AcDbEntity
  8
LAYER_8
 62
   250
100
AcDbSpline
210
0.0
220
0.0
230
1.0
 70
    11
 71
     3
 72
    17
 73
    13
 74
     0
 42
0.0000000001
 43
0.0000000001
 12
1.0
 22
0.0
 32
0.0
 13
1.0
 23
0.0
 33
0.0
 40
0.0
 40
0.0
 40
0.0
 40
0.0
 40
1.0
 40
1.0
 40
1.0
 40
2.0
 40
2.0
 40
2.0
 40
3.0
 40
3.0
 40
3.0
 40
4.0
 40
4.0
 40
4.0
 40
4.0
 10
226.8504237247062
 20
44.12926080278395
 30
0.0
 10
226.8504237247062
 20
46.48345830567298
 30
0.0
 10
228.758877877039
 20
48.39191245800583
 30
0.0
 10
231.113075379928
 20
48.39191245800583
 30
0.0
 10
233.4672728828171
 20
48.39191245800583
 30
0.0
 10
235.3757270351506
 20
46.48345830567298
 30
0.0
 10
235.3757270351506
 20
44.12926080278395
 30
0.0
 10
235.3757270351506
 20
41.77506329989491
 30
0.0
 10
233.4672728828171
 20
39.86660914756207
 30
0.0
 10
231.113075379928
 20
39.86660914756207
 30
0.0
 10
228.758877877039
 20
39.86660914756207
 30
0.0
 10
226.8504237247062
 20
41.77506329989491
 30
0.0
 10
226.8504237247062
 20
44.12926080278395
 30
0.0
  0
SPLINE
  5
CF
330
C3
100
AcDbEntity
  8
LAYER_8
 62
   250
100
AcDbSpline
210
0.0
220
0.0
230
1.0
 70
    11
 71
     3
 72
    17
 73
    13
 74
     0
 42
0.0000000001
 43
0.0000000001
 12
1.0
 22
0.0
 32
0.0
 13
1.0
 23
0.0
 33
0.0
 40
0.0
 40
0.0
 40
0.0
 40
0.0
 40
1.0
 40
1.0
 40
1.0
 40
2.0
 40
2.0
 40
2.0
 40
3.0
 40
3.0
 40
3.0
 40
4.0
 40
4.0
 40
4.0
 40
4.0
 10
205.101044602209
 20
44.12926080278395
 30
0.0
 10
205.101044602209
 20
46.48345830567298
 30
0.0
 10
207.0094987545418
 20
48.39191245800583
 30
0.0
 10
209.3636962574309
 20
48.39191245800583
 30
0.0
 10
211.7178937603199
 20
48.39191245800583
 30
0.0
 10
213.6263479126527
 20
46.48345830567298
 30
0.0
 10
213.6263479126527
 20
44.12926080278395
 30
0.0
 10
213.6263479126527
 20
41.77506329989491
 30
0.0
 10
211.7178937603199
 20
39.86660914756207
 30
0.0
 10
209.3636962574309
 20
39.86660914756207
 30
0.0
 10
207.0094987545418
 20
39.86660914756207
 30
0.0
 10
205.101044602209
 20
41.77506329989491
 30
0.0
 10
205.101044602209
 20
44.12926080278395
 30
0.0
  0
SPLINE
  5
D0
330
C3
100
AcDbEntity
  8
LAYER_8
 62
   250
100
AcDbSpline
210
0.0
220
0.0
230
1.0
 70
    11
 71
     3
 72
    17
 73
    13
 74
     0
 42
0.0000000001
 43
0.0000000001
 12
1.0
 22
0.0
 32
0.0
 13
1.0
 23
0.0
 33
0.0
 40
0.0
 40
0.0
 40
0.0
 40
0.0
 40
1.0
 40
1.0
 40
1.0
 40
2.0
 40
2.0
 40
2.0
 40
3.0
 40
3.0
 40
3.0
 40
4.0
 40
4.0
 40
4.0
 40
4.0
 10
183.3516654797112
 20
44.12926080278395
 30
0.0
 10
183.3516654797112
 20
46.48345830567298
 30
0.0
 10
185.2601196320443
 20
48.39191245800583
 30
0.0
 10
187.6143171349333
 20
48.39191245800583
 30
0.0
 10
189.9685146378224
 20
48.39191245800583
 30
0.0
 10
191.8769687901556
 20
46.48345830567298
 30
0.0
 10
191.8769687901556
 20
44.12926080278395
 30
0.0
 10
191.8769687901556
 20
41.77506329989491
 30
0.0
 10
189.9685146378224
 20
39.86660914756207
 30
0.0
 10
187.6143171349333
 20
39.86660914756207
 30
0.0
 10
185.2601196320443
 20
39.86660914756207
 30
0.0
 10
183.3516654797112
 20
41.77506329989491
 30
0.0
 10
183.3516654797112
 20
44.12926080278395
 30
0.0
  0
ENDBLK
  5
C6
330
C3
100
AcDbEntity
  8
0
100
AcDbBlockEnd
  0
BLOCK
  5
D3
330
D1
100
AcDbEntity
  8
0
100
AcDbBlockBegin
  2
BLOCK_6
 70
     0
 10
0.0
 20
0.0
 30
0.0
  3
BLOCK_6
  1

  0
SPLINE
  5
D5
330
D1
100
AcDbEntity
  8
LAYER_8
 62
   250
100
AcDbSpline
210
0.0
220
0.0
230
1.0
 70
    11
 71
     3
 72
    17
 73
    13
 74
     0
 42
0.0000000001
 43
0.0000000001
 12
1.0
 22
0.0
 32
0.0
 13
1.0
 23
0.0
 33
0.0
 40
0.0
 40
0.0
 40
0.0
 40
0.0
 40
1.0
 40
1.0
 40
1.0
 40
2.0
 40
2.0
 40
2.0
 40
3.0
 40
3.0
 40
3.0
 40
4.0
 40
4.0
 40
4.0
 40
4.0
 10
153.0605309678631
 20
161.0100793155991
 30
0.0
 10
157.1825426469518
 20
161.0100793155991
 30
0.0
 10
160.524093343217
 20
157.6685286193338
 30
0.0
 10
160.524093343217
 20
153.5465169402451
 30
0.0
 10
160.524093343217
 20
149.4245052611557
 30
0.0
 10
157.1825426469518
 20
146.0829545648911
 30
0.0
 10
153.0605309678631
 20
146.0829545648911
 30
0.0
 10
148.9385192887737
 20
146.0829545648911
 30
0.0
 10
145.5969685925091
 20
149.4245052611557
 30
0.0
 10
145.5969685925091
 20
153.5465169402451
 30
0.0
 10
145.5969685925091
 20
157.6685286193338
 30
0.0
 10
148.9385192887737
 20
161.0100793155991
 30
0.0
 10
153.0605309678631
 20
161.0100793155991
 30
0.0
  0
ENDBLK
  5
D4
330
D1
100
AcDbEntity
  8
0
100
AcDbBlockEnd
  0
BLOCK
  5
D8
330
D6
100
AcDbEntity
  8
0
100
AcDbBlockBegin
  2
BLOCK_7
 70
     0
 10
0.0
 20
0.0
 30
0.0
  3
BLOCK_7
  1

  0
SPLINE
  5
DA
330
D6
100
AcDbEntity
  8
LAYER_8
100
AcDbSpline
210
0.0
220
0.0
230
1.0
 70
    11
 71
     3
 72
    17
 73
    13
 74
     0
 42
0.0000000001
 43
0.0000000001
 12
1.0
 22
0.0
 32
0.0
 13
1.0
 23
0.0
 33
0.0
 40
0.0
 40
0.0
 40
0.0
 40
0.0
 40
1.0
 40
1.0
 40
1.0
 40
2.0
 40
2.0
 40
2.0
 40
3.0
 40
3.0
 40
3.0
 40
4.0
 40
4.0
 40
4.0
 40
4.0
 10
170.3702760929177
 20
163.3980180222557
 30
0.0
 10
172.0747661397182
 20
163.3980180222557
 30
0.0
 10
173.4565283340268
 20
162.0162558279468
 30
0.0
 10
173.4565283340268
 20
160.3117657811466
 30
0.0
 10
173.4565283340268
 20
158.6072757343457
 30
0.0
 10
172.0747661397182
 20
157.2255135400372
 30
0.0
 10
170.3702760929177
 20
157.2255135400372
 30
0.0
 10
168.6657860461169
 20
157.2255135400372
 30
0.0
 10
167.2840238518086
 20
158.6072757343457
 30
0.0
 10
167.2840238518086
 20
160.3117657811466
 30
0.0
 10
167.2840238518086
 20
162.0162558279468
 30
0.0
 10
168.6657860461169
 20
163.3980180222557
 30
0.0
 10
170.3702760929177
 20
163.3980180222557
 30
0.0
  0
SPLINE
  5
DB
330
D6
100
AcDbEntity
  8
LAYER_8
100
AcDbSpline
210
0.0
220
0.0
230
1.0
 70
    11
 71
     3
 72
    17
 73
    13
 74
     0
 42
0.0000000001
 43
0.0000000001
 12
1.0
 22
0.0
 32
0.0
 13
1.0
 23
0.0
 33
0.0
 40
0.0
 40
0.0
 40
0.0
 40
0.0
 40
1.0
 40
1.0
 40
1.0
 40
2.0
 40
2.0
 40
2.0
 40
3.0
 40
3.0
 40
3.0
 40
4.0
 40
4.0
 40
4.0
 40
4.0
 10
170.3702760929177
 20
150.6575955717378
 30
0.0
 10
172.0747661397182
 20
150.6575955717378
 30
0.0
 10
173.4565283340268
 20
149.2758333774293
 30
0.0
 10
173.4565283340268
 20
147.5713433306284
 30
0.0
 10
173.4565283340268
 20
145.8668532838276
 30
0.0
 10
172.0747661397182
 20
144.485091089519
 30
0.0
 10
170.3702760929177
 20
144.485091089519
 30
0.0
 10
168.6657860461169
 20
144.485091089519
 30
0.0
 10
167.2840238518086
 20
145.8668532838276
 30
0.0
 10
167.2840238518086
 20
147.5713433306284
 30
0.0
 10
167.2840238518086
 20
149.2758333774293
 30
0.0
 10
168.6657860461169
 20
150.6575955717378
 30
0.0
 10
170.3702760929177
 20
150.6575955717378
 30
0.0
  0
ENDBLK
  5
D9
330
D6
100
AcDbEntity
  8
0
100
AcDbBlockEnd
  0
BLOCK
  5
DE
330
DC
100
AcDbEntity
  8
0
100
AcDbBlockBegin
  2
BLOCK_8
 70
     0
 10
0.0
 20
0.0
 30
0.0
  3
BLOCK_8
  1

  0
SPLINE
  5
E0
330
DC
100
AcDbEntity
  8
LAYER_8
100
AcDbSpline
210
0.0
220
0.0
230
1.0
 70
    11
 71
     3
 72
    17
 73
    13
 74
     0
 42
0.0000000001
 43
0.0000000001
 12
1.0
 22
0.0
 32
0.0
 13
1.0
 23
0.0
 33
0.0
 40
0.0
 40
0.0
 40
0.0
 40
0.0
 40
1.0
 40
1.0
 40
1.0
 40
2.0
 40
2.0
 40
2.0
 40
3.0
 40
3.0
 40
3.0
 40
4.0
 40
4.0
 40
4.0
 40
4.0
 10
136.4662036695874
 20
163.3980180222557
 30
0.0
 10
138.1706937163879
 20
163.3980180222557
 30
0.0
 10
139.5524559106965
 20
162.0162558279468
 30
0.0
 10
139.5524559106965
 20
160.3117657811466
 30
0.0
 10
139.5524559106965
 20
158.6072757343457
 30
0.0
 10
138.1706937163879
 20
157.2255135400372
 30
0.0
 10
136.4662036695874
 20
157.2255135400372
 30
0.0
 10
134.7617136227865
 20
157.2255135400372
 30
0.0
 10
133.3799514284783
 20
158.6072757343457
 30
0.0
 10
133.3799514284783
 20
160.3117657811466
 30
0.0
 10
133.3799514284783
 20
162.0162558279468
 30
0.0
 10
134.7617136227865
 20
163.3980180222557
 30
0.0
 10
136.4662036695874
 20
163.3980180222557
 30
0.0
  0
SPLINE
  5
E1
330
DC
100
AcDbEntity
  8
LAYER_8
100
AcDbSpline
210
0.0
220
0.0
230
1.0
 70
    11
 71
     3
 72
    17
 73
    13
 74
     0
 42
0.0000000001
 43
0.0000000001
 12
1.0
 22
0.0
 32
0.0
 13
1.0
 23
0.0
 33
0.0
 40
0.0
 40
0.0
 40
0.0
 40
0.0
 40
1.0
 40
1.0
 40
1.0
 40
2.0
 40
2.0
 40
2.0
 40
3.0
 40
3.0
 40
3.0
 40
4.0
 40
4.0
 40
4.0
 40
4.0
 10
136.4662036695874
 20
150.6575955717378
 30
0.0
 10
138.1706937163879
 20
150.6575955717378
 30
0.0
 10
139.5524559106965
 20
149.2758333774293
 30
0.0
 10
139.5524559106965
 20
147.5713433306284
 30
0.0
 10
139.5524559106965
 20
145.8668532838276
 30
0.0
 10
138.1706937163879
 20
144.485091089519
 30
0.0
 10
136.4662036695874
 20
144.485091089519
 30
0.0
 10
134.7617136227865
 20
144.485091089519
 30
0.0
 10
133.3799514284783
 20
145.8668532838276
 30
0.0
 10
133.3799514284783
 20
147.5713433306284
 30
0.0
 10
133.3799514284783
 20
149.2758333774293
 30
0.0
 10
134.7617136227865
 20
150.6575955717378
 30
0.0
 10
136.4662036695874
 20
150.6575955717378
 30
0.0
  0
ENDBLK
  5
DF
330
DC
100
AcDbEntity
  8
0
100
AcDbBlockEnd
  0
BLOCK
  5
129
330
127
100
AcDbEntity
  8
0
100
AcDbBlockBegin
  2
BLOCK_9
 70
     0
 10
0.0
 20
0.0
 30
0.0
  3
BLOCK_9
  1

  0
INSERT
  5
12C
330
127
100
AcDbEntity
  8
LAYER_8
100
AcDbBlockReference
  2
BLOCK_10
 10
0.0
 20
0.0
 30
0.0
  0
POLYLINE
  5
13D
330
127
100
AcDbEntity
  8
LAYER_8
 62
     7
100
AcDb2dPolyline
 66
     1
 10
0.0
 20
0.0
 30
0.0
  0
VERTEX
  5
13E
330
13D
100
AcDbEntity
  8
LAYER_8
 62
     7
100
AcDbVertex
100
AcDb2dVertex
 10
319.9669953175463
 20
39.19304139422619
 30
0.0
  0
VERTEX
  5
13F
330
13D
100
AcDbEntity
  8
LAYER_8
 62
     7
100
AcDbVertex
100
AcDb2dVertex
 10
307.9669953205464
 20
39.19304139422619
 30
0.0
  0
VERTEX
  5
140
330
13D
100
AcDbEntity
  8
LAYER_8
 62
     7
100
AcDbVertex
100
AcDb2dVertex
 10
307.9669953205464
 20
62.1930413884761
 30
0.0
  0
VERTEX
  5
141
330
13D
100
AcDbEntity
  8
LAYER_8
 62
     7
100
AcDbVertex
100
AcDb2dVertex
 10
319.9669953175463
 20
62.1930413884761
 30
0.0
  0
VERTEX
  5
142
330
13D
100
AcDbEntity
  8
LAYER_8
 62
     7
100
AcDbVertex
100
AcDb2dVertex
 10
319.9669953175463
 20
39.19304139422619
 30
0.0
  0
SEQEND
  5
143
330
13D
100
AcDbEntity
  8
LAYER_8
 62
     7
  0
SPLINE
  5
144
330
127
100
AcDbEntity
  8
LAYER_8
 62
     7
100
AcDbSpline
210
0.0
220
0.0
230
1.0
 70
    11
 71
     3
 72
    17
 73
    13
 74
     0
 42
0.0000000001
 43
0.0000000001
 12
1.0
 22
0.0
 32
0.0
 13
1.0
 23
0.0
 33
0.0
 40
0.0
 40
0.0
 40
0.0
 40
0.0
 40
1.0
 40
1.0
 40
1.0
 40
2.0
 40
2.0
 40
2.0
 40
3.0
 40
3.0
 40
3.0
 40
4.0
 40
4.0
 40
4.0
 40
4.0
 10
298.8060896812422
 20
48.91791576733008
 30
0.0
 10
298.8060896812422
 20
46.97226315355287
 30
0.0
 10
297.2288265991499
 20
45.39500007124879
 30
0.0
 10
295.2831739856351
 20
45.39500007124879
 30
0.0
 10
293.3375213721204
 20
45.39500007124879
 30
0.0
 10
291.760258290028
 20
46.97226315355287
 30
0.0
 10
291.760258290028
 20
48.91791576733008
 30
0.0
 10
291.760258290028
 20
50.86356838110729
 30
0.0
 10
293.3375213721204
 20
52.44083146341137
 30
0.0
 10
295.2831739856351
 20
52.44083146341137
 30
0.0
 10
297.2288265991499
 20
52.44083146341137
 30
0.0
 10
298.8060896812422
 20
50.86356838110729
 30
0.0
 10
298.8060896812422
 20
48.91791576733008
 30
0.0
  0
SPLINE
  5
145
330
127
100
AcDbEntity
  8
LAYER_8
 62
     7
100
AcDbSpline
210
0.0
220
0.0
230
1.0
 70
    11
 71
     3
 72
    17
 73
    13
 74
     0
 42
0.0000000001
 43
0.0000000001
 12
1.0
 22
0.0
 32
0.0
 13
1.0
 23
0.0
 33
0.0
 40
0.0
 40
0.0
 40
0.0
 40
0.0
 40
1.0
 40
1.0
 40
1.0
 40
2.0
 40
2.0
 40
2.0
 40
3.0
 40
3.0
 40
3.0
 40
4.0
 40
4.0
 40
4.0
 40
4.0
 10
336.1737323480646
 20
48.91791576733008
 30
0.0
 10
336.1737323480646
 20
46.97226315355287
 30
0.0
 10
334.5964692659723
 20
45.39500007124879
 30
0.0
 10
332.6508166524569
 20
45.39500007124879
 30
0.0
 10
330.7051640389428
 20
45.39500007124879
 30
0.0
 10
329.1279009568505
 20
46.97226315355287
 30
0.0
 10
329.1279009568505
 20
48.91791576733008
 30
0.0
 10
329.1279009568505
 20
50.86356838110729
 30
0.0
 10
330.7051640389428
 20
52.44083146341137
 30
0.0
 10
332.6508166524569
 20
52.44083146341137
 30
0.0
 10
334.5964692659723
 20
52.44083146341137
 30
0.0
 10
336.1737323480646
 20
50.86356838110729
 30
0.0
 10
336.1737323480646
 20
48.91791576733008
 30
0.0
  0
SPLINE
  5
146
330
127
100
AcDbEntity
  8
LAYER_8
 62
     7
100
AcDbSpline
210
0.0
220
0.0
230
1.0
 70
    11
 71
     3
 72
    17
 73
    13
 74
     0
 42
0.0000000001
 43
0.0000000001
 12
1.0
 22
0.0
 32
0.0
 13
1.0
 23
0.0
 33
0.0
 40
0.0
 40
0.0
 40
0.0
 40
0.0
 40
1.0
 40
1.0
 40
1.0
 40
2.0
 40
2.0
 40
2.0
 40
3.0
 40
3.0
 40
3.0
 40
4.0
 40
4.0
 40
4.0
 40
4.0
 10
298.8060896812422
 20
62.53363135245346
 30
0.0
 10
298.8060896812422
 20
60.58797873867626
 30
0.0
 10
297.2288265991499
 20
59.01071565637217
 30
0.0
 10
295.2831739856351
 20
59.01071565637217
 30
0.0
 10
293.3375213721204
 20
59.01071565637217
 30
0.0
 10
291.760258290028
 20
60.58797873867626
 30
0.0
 10
291.760258290028
 20
62.53363135245346
 30
0.0
 10
291.760258290028
 20
64.47928396623067
 30
0.0
 10
293.3375213721204
 20
66.05654704853475
 30
0.0
 10
295.2831739856351
 20
66.05654704853475
 30
0.0
 10
297.2288265991499
 20
66.05654704853475
 30
0.0
 10
298.8060896812422
 20
64.47928396623067
 30
0.0
 10
298.8060896812422
 20
62.53363135245346
 30
0.0
  0
SPLINE
  5
147
330
127
100
AcDbEntity
  8
LAYER_8
 62
     7
100
AcDbSpline
210
0.0
220
0.0
230
1.0
 70
    11
 71
     3
 72
    17
 73
    13
 74
     0
 42
0.0000000001
 43
0.0000000001
 12
1.0
 22
0.0
 32
0.0
 13
1.0
 23
0.0
 33
0.0
 40
0.0
 40
0.0
 40
0.0
 40
0.0
 40
1.0
 40
1.0
 40
1.0
 40
2.0
 40
2.0
 40
2.0
 40
3.0
 40
3.0
 40
3.0
 40
4.0
 40
4.0
 40
4.0
 40
4.0
 10
336.1737323480646
 20
62.53363135245346
 30
0.0
 10
336.1737323480646
 20
60.58797873867626
 30
0.0
 10
334.5964692659723
 20
59.01071565637217
 30
0.0
 10
332.6508166524569
 20
59.01071565637217
 30
0.0
 10
330.7051640389428
 20
59.01071565637217
 30
0.0
 10
329.1279009568505
 20
60.58797873867626
 30
0.0
 10
329.1279009568505
 20
62.53363135245346
 30
0.0
 10
329.1279009568505
 20
64.47928396623067
 30
0.0
 10
330.7051640389428
 20
66.05654704853475
 30
0.0
 10
332.6508166524569
 20
66.05654704853475
 30
0.0
 10
334.5964692659723
 20
66.05654704853475
 30
0.0
 10
336.1737323480646
 20
64.47928396623067
 30
0.0
 10
336.1737323480646
 20
62.53363135245346
 30
0.0
  0
SPLINE
  5
148
330
127
100
AcDbEntity
  8
LAYER_8
 62
   250
100
AcDbSpline
210
0.0
220
0.0
230
1.0
 70
    11
 71
     3
 72
    26
 73
    22
 74
     0
 42
0.0000000001
 43
0.0000000001
 12
1.0
 22
0.0
 32
0.0
 13
1.0
 23
0.0
 33
0.0
 40
0.0
 40
0.0
 40
0.0
 40
0.0
 40
1.0
 40
1.0
 40
1.0
 40
2.0
 40
2.0
 40
2.0
 40
3.0
 40
3.0
 40
3.0
 40
4.0
 40
4.0
 40
4.0
 40
5.0
 40
5.0
 40
5.0
 40
6.0
 40
6.0
 40
6.0
 40
7.0
 40
7.0
 40
7.0
 40
7.0
 10
282.9775397534044
 20
46.82059433500531
 30
0.0
 10
284.9852173657621
 20
41.08825961501701
 30
0.0
 10
289.483257338223
 20
36.56951786561903
 30
0.0
 10
295.2162055579392
 20
34.56359278048031
 30
0.0
 10
299.660505120417
 20
33.00855833108692
 30
0.0
 10
305.7848676774965
 20
31.74999999246036
 30
0.0
 10
313.9669953190464
 20
31.74999999270741
 30
0.0
 10
322.3895759081364
 20
31.74999999232945
 30
0.0
 10
328.6590317803476
 20
33.08843683150293
 30
0.0
 10
333.1658205965006
 20
34.71209887709914
 30
0.0
 10
338.7962070859621
 20
36.74055976530678
 30
0.0
 10
343.1723929419555
 20
41.26029107400765
 30
0.0
 10
345.1361015260678
 20
46.91358694388643
 30
0.0
 10
345.1361015260678
 20
46.91358694388643
 30
0.0
 10
353.9276037856014
 20
72.2233318907563
 30
0.0
 10
353.9276037856014
 20
72.2233318907563
 30
0.0
 10
353.9276037856014
 20
72.2233318907563
 30
0.0
 10
274.0805527534214
 20
72.2233318907563
 30
0.0
 10
274.0805527534214
 20
72.2233318907563
 30
0.0
 10
274.0805527534214
 20
72.2233318907563
 30
0.0
 10
282.9775397534044
 20
46.82059433500531
 30
0.0
 10
282.9775397534044
 20
46.82059433500531
 30
0.0
  0
ENDBLK
  5
12A
330
127
100
AcDbEntity
  8
0
100
AcDbBlockEnd
  0
BLOCK
  5
12D
330
12B
100
AcDbEntity
  8
0
100
AcDbBlockBegin
  2
BLOCK_10
 70
     0
 10
0.0
 20
0.0
 30
0.0
  3
BLOCK_10
  1

  0
POLYLINE
  5
12F
330
12B
100
AcDbEntity
  8
LAYER_8
 62
   250
100
AcDb2dPolyline
 66
     1
 10
0.0
 20
0.0
 30
0.0
  0
VERTEX
  5
130
330
12F
100
AcDbEntity
  8
LAYER_8
 62
   250
100
AcDbVertex
100
AcDb2dVertex
 10
288.2276126041613
 20
57.77967790204523
 30
0.0
  0
VERTEX
  5
131
330
12F
100
AcDbEntity
  8
LAYER_8
 62
   250
100
AcDbVertex
100
AcDb2dVertex
 10
285.2276126049106
 20
57.77967790204523
 30
0.0
  0
VERTEX
  5
132
330
12F
100
AcDbEntity
  8
LAYER_8
 62
   250
100
AcDbVertex
100
AcDb2dVertex
 10
285.2276126049106
 20
64.77967790029557
 30
0.0
  0
VERTEX
  5
133
330
12F
100
AcDbEntity
  8
LAYER_8
 62
   250
100
AcDbVertex
100
AcDb2dVertex
 10
288.2276126041613
 20
64.77967790029557
 30
0.0
  0
VERTEX
  5
134
330
12F
100
AcDbEntity
  8
LAYER_8
 62
   250
100
AcDbVertex
100
AcDb2dVertex
 10
288.2276126041613
 20
57.77967790204523
 30
0.0
  0
SEQEND
  5
135
330
12F
100
AcDbEntity
  8
LAYER_8
 62
   250
  0
POLYLINE
  5
136
330
12B
100
AcDbEntity
  8
LAYER_8
 62
   250
100
AcDb2dPolyline
 66
     1
 10
0.0
 20
0.0
 30
0.0
  0
VERTEX
  5
137
330
136
100
AcDbEntity
  8
LAYER_8
 62
   250
100
AcDbVertex
100
AcDb2dVertex
 10
342.8287991511957
 20
57.77967790204523
 30
0.0
  0
VERTEX
  5
138
330
136
100
AcDbEntity
  8
LAYER_8
 62
   250
100
AcDbVertex
100
AcDb2dVertex
 10
339.8287991519451
 20
57.77967790204523
 30
0.0
  0
VERTEX
  5
139
330
136
100
AcDbEntity
  8
LAYER_8
 62
   250
100
AcDbVertex
100
AcDb2dVertex
 10
339.8287991519451
 20
64.77967790029557
 30
0.0
  0
VERTEX
  5
13A
330
136
100
AcDbEntity
  8
LAYER_8
 62
   250
100
AcDbVertex
100
AcDb2dVertex
 10
342.8287991511957
 20
64.77967790029557
 30
0.0
  0
VERTEX
  5
13B
330
136
100
AcDbEntity
  8
LAYER_8
 62
   250
100
AcDbVertex
100
AcDb2dVertex
 10
342.8287991511957
 20
57.77967790204523
 30
0.0
  0
SEQEND
  5
13C
330
136
100
AcDbEntity
  8
LAYER_8
 62
   250
  0
ENDBLK
  5
12E
330
12B
100
AcDbEntity
  8
0
100
AcDbBlockEnd
  0
ENDSEC
  0
SECTION
  2
ENTITIES
  0
INSERT
  5
42
330
1F
100
AcDbEntity
  8
LAYER_8
100
AcDbBlockReference
  2
BLOCK_2
 10
0.0
 20
0.0
 30
0.0
  0
INSERT
  5
87
330
1F
100
AcDbEntity
  8
LAYER_8
100
AcDbBlockReference
  2
BLOCK_3
 10
0.0
 20
0.0
 30
0.0
  0
INSERT
  5
B6
330
1F
100
AcDbEntity
  8
LAYER_8
100
AcDbBlockReference
  2
BLOCK_4
 10
0.0
 20
0.0
 30
0.0
  0
INSERT
  5
C4
330
1F
100
AcDbEntity
  8
LAYER_8
100
AcDbBlockReference
  2
BLOCK_5
 10
0.0
 20
0.0
 30
0.0
  0
INSERT
  5
D2
330
1F
100
AcDbEntity
  8
LAYER_8
100
AcDbBlockReference
  2
BLOCK_6
 10
0.0
 20
0.0
 30
0.0
  0
INSERT
  5
D7
330
1F
100
AcDbEntity
  8
LAYER_8
100
AcDbBlockReference
  2
BLOCK_7
 10
0.0
 20
0.0
 30
0.0
  0
INSERT
  5
DD
330
1F
100
AcDbEntity
  8
LAYER_8
100
AcDbBlockReference
  2
BLOCK_8
 10
0.0
 20
0.0
 30
0.0
  0
POLYLINE
  5
E2
330
1F
100
AcDbEntity
  8
LAYER_8
 62
   250
100
AcDb2dPolyline
 66
     1
 10
0.0
 20
0.0
 30
0.0
  0
VERTEX
  5
E3
330
E2
100
AcDbEntity
  8
LAYER_8
 62
   250
100
AcDbVertex
100
AcDb2dVertex
 10
170.2246742187668
 20
102.6618347737278
 30
0.0
  0
VERTEX
  5
E4
330
E2
100
AcDbEntity
  8
LAYER_8
 62
   250
100
AcDbVertex
100
AcDb2dVertex
 10
160.5274625105791
 20
105.384106162478
 30
0.0
  0
VERTEX
  5
E5
330
E2
100
AcDbEntity
  8
LAYER_8
 62
   250
100
AcDbVertex
100
AcDb2dVertex
 10
149.6776510441076
 20
104.7652593540933
 30
0.0
  0
VERTEX
  5
E6
330
E2
100
AcDbEntity
  8
LAYER_8
 62
   250
100
AcDbVertex
100
AcDb2dVertex
 10
149.6776510441076
 20
112.8102463312487
 30
0.0
  0
VERTEX
  5
E7
330
E2
100
AcDbEntity
  8
LAYER_8
 62
   250
100
AcDbVertex
100
AcDb2dVertex
 10
145.2214200339369
 20
107.2052051678279
 30
0.0
  0
VERTEX
  5
E8
330
E2
100
AcDbEntity
  8
LAYER_8
 62
   250
100
AcDbVertex
100
AcDb2dVertex
 10
142.8683336901241
 20
109.0654275387821
 30
0.0
  0
VERTEX
  5
E9
330
E2
100
AcDbEntity
  8
LAYER_8
 62
   250
100
AcDbVertex
100
AcDb2dVertex
 10
133.4098240353707
 20
97.1012568739129
 30
0.0
  0
VERTEX
  5
EA
330
E2
100
AcDbEntity
  8
LAYER_8
 62
   250
100
AcDbVertex
100
AcDb2dVertex
 10
135.7300958446864
 20
95.26698037833197
 30
0.0
  0
VERTEX
  5
EB
330
E2
100
AcDbEntity
  8
LAYER_8
 62
   250
100
AcDbVertex
100
AcDb2dVertex
 10
131.5964118993223
 20
90.06766380383971
 30
0.0
  0
VERTEX
  5
EC
330
E2
100
AcDbEntity
  8
LAYER_8
 62
   250
100
AcDbVertex
100
AcDb2dVertex
 10
149.6776510441076
 20
82.79622995420357
 30
0.0
  0
VERTEX
  5
ED
330
E2
100
AcDbEntity
  8
LAYER_8
 62
   250
100
AcDbVertex
100
AcDb2dVertex
 10
149.6776510441076
 20
90.06766380383971
 30
0.0
  0
VERTEX
  5
EE
330
E2
100
AcDbEntity
  8
LAYER_8
 62
   250
100
AcDbVertex
100
AcDb2dVertex
 10
160.2180498723101
 20
90.84123846320577
 30
0.0
  0
VERTEX
  5
EF
330
E2
100
AcDbEntity
  8
LAYER_8
 62
   250
100
AcDbVertex
100
AcDb2dVertex
 10
166.4523377261118
 20
85.6782461142361
 30
0.0
  0
VERTEX
  5
F0
330
E2
100
AcDbEntity
  8
LAYER_8
 62
   250
100
AcDbVertex
100
AcDb2dVertex
 10
176.2895495020813
 20
97.33306873637665
 30
0.0
  0
VERTEX
  5
F1
330
E2
100
AcDbEntity
  8
LAYER_8
 62
   250
100
AcDbVertex
100
AcDb2dVertex
 10
170.2246742187668
 20
102.6618347737278
 30
0.0
  0
SEQEND
  5
F2
330
E2
100
AcDbEntity
  8
LAYER_8
 62
   250
  0
SPLINE
  5
F3
330
1F
100
AcDbEntity
  8
LAYER_8
 62
   250
100
AcDbSpline
210
0.0
220
0.0
230
1.0
 70
    11
 71
     3
 72
    17
 73
    13
 74
     0
 42
0.0000000001
 43
0.0000000001
 12
1.0
 22
0.0
 32
0.0
 13
1.0
 23
0.0
 33
0.0
 40
0.0
 40
0.0
 40
0.0
 40
0.0
 40
1.0
 40
1.0
 40
1.0
 40
2.0
 40
2.0
 40
2.0
 40
3.0
 40
3.0
 40
3.0
 40
4.0
 40
4.0
 40
4.0
 40
4.0
 10
147.2132978912985
 20
94.67393979136646
 30
0.0
 10
147.2132978912985
 20
92.60680762439
 30
0.0
 10
145.5375561735171
 20
90.93106590660865
 30
0.0
 10
143.4704240065414
 20
90.93106590660865
 30
0.0
 10
141.4032918395655
 20
90.93106590660865
 30
0.0
 10
139.7275501217845
 20
92.60680762439
 30
0.0
 10
139.7275501217845
 20
94.67393979136646
 30
0.0
 10
139.7275501217845
 20
96.74107195834227
 30
0.0
 10
141.4032918395655
 20
98.41681367612298
 30
0.0
 10
143.4704240065414
 20
98.41681367612298
 30
0.0
 10
145.5375561735171
 20
98.41681367612298
 30
0.0
 10
147.2132978912985
 20
96.74107195834227
 30
0.0
 10
147.2132978912985
 20
94.67393979136646
 30
0.0
  0
POLYLINE
  5
F4
330
1F
100
AcDbEntity
  8
LAYER_8
 62
   250
100
AcDb2dPolyline
 66
     1
 10
0.0
 20
0.0
 30
0.0
  0
VERTEX
  5
F5
330
F4
100
AcDbEntity
  8
LAYER_8
 62
   250
100
AcDbVertex
100
AcDb2dVertex
 10
161.8786621105741
 20
74.54682320764479
 30
0.0
  0
VERTEX
  5
F6
330
F4
100
AcDbEntity
  8
LAYER_8
 62
   250
100
AcDbVertex
100
AcDb2dVertex
 10
152.1814504023864
 20
77.2690945963963
 30
0.0
  0
VERTEX
  5
F7
330
F4
100
AcDbEntity
  8
LAYER_8
 62
   250
100
AcDbVertex
100
AcDb2dVertex
 10
141.3316389359148
 20
76.65024778801087
 30
0.0
  0
VERTEX
  5
F8
330
F4
100
AcDbEntity
  8
LAYER_8
 62
   250
100
AcDbVertex
100
AcDb2dVertex
 10
141.3316389359148
 20
84.69523476516629
 30
0.0
  0
VERTEX
  5
F9
330
F4
100
AcDbEntity
  8
LAYER_8
 62
   250
100
AcDbVertex
100
AcDb2dVertex
 10
136.8754079257442
 20
79.0901936017455
 30
0.0
  0
VERTEX
  5
FA
330
F4
100
AcDbEntity
  8
LAYER_8
 62
   250
100
AcDbVertex
100
AcDb2dVertex
 10
134.5223215819314
 20
80.95041597269972
 30
0.0
  0
VERTEX
  5
FB
330
F4
100
AcDbEntity
  8
LAYER_8
 62
   250
100
AcDbVertex
100
AcDb2dVertex
 10
125.063811927178
 20
68.98624530783052
 30
0.0
  0
VERTEX
  5
FC
330
F4
100
AcDbEntity
  8
LAYER_8
 62
   250
100
AcDbVertex
100
AcDb2dVertex
 10
127.3840837364937
 20
67.15196881225023
 30
0.0
  0
VERTEX
  5
FD
330
F4
100
AcDbEntity
  8
LAYER_8
 62
   250
100
AcDbVertex
100
AcDb2dVertex
 10
123.2503997911296
 20
61.95265223775731
 30
0.0
  0
VERTEX
  5
FE
330
F4
100
AcDbEntity
  8
LAYER_8
 62
   250
100
AcDbVertex
100
AcDb2dVertex
 10
141.3316389359148
 20
54.68121838812118
 30
0.0
  0
VERTEX
  5
FF
330
F4
100
AcDbEntity
  8
LAYER_8
 62
   250
100
AcDbVertex
100
AcDb2dVertex
 10
141.3316389359148
 20
61.95265223775731
 30
0.0
  0
VERTEX
  5
100
330
F4
100
AcDbEntity
  8
LAYER_8
 62
   250
100
AcDbVertex
100
AcDb2dVertex
 10
151.8720377641174
 20
62.72622689712402
 30
0.0
  0
VERTEX
  5
101
330
F4
100
AcDbEntity
  8
LAYER_8
 62
   250
100
AcDbVertex
100
AcDb2dVertex
 10
158.1063256179191
 20
57.56323454815436
 30
0.0
  0
VERTEX
  5
102
330
F4
100
AcDbEntity
  8
LAYER_8
 62
   250
100
AcDbVertex
100
AcDb2dVertex
 10
167.9435373938886
 20
69.21805717029426
 30
0.0
  0
VERTEX
  5
103
330
F4
100
AcDbEntity
  8
LAYER_8
 62
   250
100
AcDbVertex
100
AcDb2dVertex
 10
161.8786621105741
 20
74.54682320764479
 30
0.0
  0
SEQEND
  5
104
330
F4
100
AcDbEntity
  8
LAYER_8
 62
   250
  0
SPLINE
  5
105
330
1F
100
AcDbEntity
  8
LAYER_8
 62
   250
100
AcDbSpline
210
0.0
220
0.0
230
1.0
 70
    11
 71
     3
 72
    17
 73
    13
 74
     0
 42
0.0000000001
 43
0.0000000001
 12
1.0
 22
0.0
 32
0.0
 13
1.0
 23
0.0
 33
0.0
 40
0.0
 40
0.0
 40
0.0
 40
0.0
 40
1.0
 40
1.0
 40
1.0
 40
2.0
 40
2.0
 40
2.0
 40
3.0
 40
3.0
 40
3.0
 40
4.0
 40
4.0
 40
4.0
 40
4.0
 10
138.8672857831058
 20
66.55892822528342
 30
0.0
 10
138.8672857831058
 20
64.49179605830763
 30
0.0
 10
137.1915440653244
 20
62.81605434052627
 30
0.0
 10
135.1244118983486
 20
62.81605434052627
 30
0.0
 10
133.0572797313728
 20
62.81605434052627
 30
0.0
 10
131.3815380135914
 20
64.49179605830763
 30
0.0
 10
131.3815380135914
 20
66.55892822528342
 30
0.0
 10
131.3815380135914
 20
68.62606039225923
 30
0.0
 10
133.0572797313728
 20
70.3018021100406
 30
0.0
 10
135.1244118983486
 20
70.3018021100406
 30
0.0
 10
137.1915440653244
 20
70.3018021100406
 30
0.0
 10
138.8672857831058
 20
68.62606039225923
 30
0.0
 10
138.8672857831058
 20
66.55892822528342
 30
0.0
  0
POLYLINE
  5
106
330
1F
100
AcDbEntity
  8
LAYER_8
 62
   250
100
AcDb2dPolyline
 66
     1
 10
0.0
 20
0.0
 30
0.0
  0
VERTEX
  5
107
330
106
100
AcDbEntity
  8
LAYER_8
 62
   250
100
AcDbVertex
100
AcDb2dVertex
 10
296.6220290720599
 20
99.33206094160805
 30
0.0
  0
VERTEX
  5
108
330
106
100
AcDbEntity
  8
LAYER_8
 62
   250
100
AcDbVertex
100
AcDb2dVertex
 10
296.6220290720599
 20
105.8941065671377
 30
0.0
  0
VERTEX
  5
109
330
106
100
AcDbEntity
  8
LAYER_8
 62
   250
100
AcDbVertex
100
AcDb2dVertex
 10
273.8331961377614
 20
105.8941065671377
 30
0.0
  0
VERTEX
  5
10A
330
106
100
AcDbEntity
  8
LAYER_8
 62
   250
100
AcDbVertex
100
AcDb2dVertex
 10
273.8331961377614
 20
99.33206094160805
 30
0.0
  0
VERTEX
  5
10B
330
106
100
AcDbEntity
  8
LAYER_8
 62
   250
100
AcDbVertex
100
AcDb2dVertex
 10
276.9610844562069
 20
99.33206094160805
 30
0.0
  0
VERTEX
  5
10C
330
106
100
AcDbEntity
  8
LAYER_8
 62
   250
100
AcDbVertex
100
AcDb2dVertex
 10
276.9610844562069
 20
84.08066629210059
 30
0.0
  0
VERTEX
  5
10D
330
106
100
AcDbEntity
  8
LAYER_8
 62
   250
100
AcDbVertex
100
AcDb2dVertex
 10
273.8331961377614
 20
84.08066629210059
 30
0.0
  0
VERTEX
  5
10E
330
106
100
AcDbEntity
  8
LAYER_8
 62
   250
100
AcDbVertex
100
AcDb2dVertex
 10
273.8331961377614
 20
77.51859913472417
 30
0.0
  0
VERTEX
  5
10F
330
106
100
AcDbEntity
  8
LAYER_8
 62
   250
100
AcDbVertex
100
AcDb2dVertex
 10
296.6220290720599
 20
77.51859913472417
 30
0.0
  0
VERTEX
  5
110
330
106
100
AcDbEntity
  8
LAYER_8
 62
   250
100
AcDbVertex
100
AcDb2dVertex
 10
296.6220290720599
 20
84.08066629210059
 30
0.0
  0
VERTEX
  5
111
330
106
100
AcDbEntity
  8
LAYER_8
 62
   250
100
AcDbVertex
100
AcDb2dVertex
 10
293.6220399235043
 20
84.08066629210059
 30
0.0
  0
VERTEX
  5
112
330
106
100
AcDbEntity
  8
LAYER_8
 62
   250
100
AcDbVertex
100
AcDb2dVertex
 10
293.6220399235043
 20
99.33206094160805
 30
0.0
  0
VERTEX
  5
113
330
106
100
AcDbEntity
  8
LAYER_8
 62
   250
100
AcDbVertex
100
AcDb2dVertex
 10
296.6220290720599
 20
99.33206094160805
 30
0.0
  0
SEQEND
  5
114
330
106
100
AcDbEntity
  8
LAYER_8
 62
   250
  0
SPLINE
  5
115
330
1F
100
AcDbEntity
  8
LAYER_8
 62
   250
100
AcDbSpline
210
0.0
220
0.0
230
1.0
 70
    11
 71
     3
 72
    17
 73
    13
 74
     0
 42
0.0000000001
 43
0.0000000001
 12
1.0
 22
0.0
 32
0.0
 13
1.0
 23
0.0
 33
0.0
 40
0.0
 40
0.0
 40
0.0
 40
0.0
 40
1.0
 40
1.0
 40
1.0
 40
2.0
 40
2.0
 40
2.0
 40
3.0
 40
3.0
 40
3.0
 40
4.0
 40
4.0
 40
4.0
 40
4.0
 10
291.1048408339691
 20
91.70635285093093
 30
0.0
 10
291.1048408339691
 20
88.33913608299252
 30
0.0
 10
288.3751723101123
 20
85.60946755913572
 30
0.0
 10
285.0079555421739
 20
85.60946755913572
 30
0.0
 10
281.6407387742355
 20
85.60946755913572
 30
0.0
 10
278.9110702503787
 20
88.33913608299252
 30
0.0
 10
278.9110702503787
 20
91.70635285093093
 30
0.0
 10
278.9110702503787
 20
95.07356961886933
 30
0.0
 10
281.6407387742355
 20
97.80323814272612
 30
0.0
 10
285.0079555421739
 20
97.80323814272612
 30
0.0
 10
288.3751723101123
 20
97.80323814272612
 30
0.0
 10
291.1048408339691
 20
95.07356961886933
 30
0.0
 10
291.1048408339691
 20
91.70635285093093
 30
0.0
  0
POLYLINE
  5
116
330
1F
100
AcDbEntity
  8
LAYER_8
 62
   250
100
AcDb2dPolyline
 66
     1
 10
0.0
 20
0.0
 30
0.0
  0
VERTEX
  5
117
330
116
100
AcDbEntity
  8
LAYER_8
 62
   250
100
AcDbVertex
100
AcDb2dVertex
 10
282.3222746087924
 20
166.114575805512
 30
0.0
  0
VERTEX
  5
118
330
116
100
AcDbEntity
  8
LAYER_8
 62
   250
100
AcDbVertex
100
AcDb2dVertex
 10
282.3222746087924
 20
169.005936787048
 30
0.0
  0
VERTEX
  5
119
330
116
100
AcDbEntity
  8
LAYER_8
 62
   250
100
AcDbVertex
100
AcDb2dVertex
 10
275.3222712197004
 20
169.005936787048
 30
0.0
  0
VERTEX
  5
11A
330
116
100
AcDbEntity
  8
LAYER_8
 62
   250
100
AcDbVertex
100
AcDb2dVertex
 10
275.3222712197004
 20
166.114575805512
 30
0.0
  0
VERTEX
  5
11B
330
116
100
AcDbEntity
  8
LAYER_8
 62
   250
100
AcDbVertex
100
AcDb2dVertex
 10
271.9191197719834
 20
166.114575805512
 30
0.0
  0
VERTEX
  5
11C
330
116
100
AcDbEntity
  8
LAYER_8
 62
   250
100
AcDbVertex
100
AcDb2dVertex
 10
271.9191197719834
 20
114.728005248154
 30
0.0
  0
VERTEX
  5
11D
330
116
100
AcDbEntity
  8
LAYER_8
 62
   250
100
AcDbVertex
100
AcDb2dVertex
 10
275.3222712197004
 20
114.728005248154
 30
0.0
  0
VERTEX
  5
11E
330
116
100
AcDbEntity
  8
LAYER_8
 62
   250
100
AcDbVertex
100
AcDb2dVertex
 10
275.3222712197004
 20
111.7279945677517
 30
0.0
  0
VERTEX
  5
11F
330
116
100
AcDbEntity
  8
LAYER_8
 62
   250
100
AcDbVertex
100
AcDb2dVertex
 10
282.3222746087924
 20
111.7279945677517
 30
0.0
  0
VERTEX
  5
120
330
116
100
AcDbEntity
  8
LAYER_8
 62
   250
100
AcDbVertex
100
AcDb2dVertex
 10
282.3222746087924
 20
114.728005248154
 30
0.0
  0
VERTEX
  5
121
330
116
100
AcDbEntity
  8
LAYER_8
 62
   250
100
AcDbVertex
100
AcDb2dVertex
 10
285.9030207287739
 20
114.728005248154
 30
0.0
  0
VERTEX
  5
122
330
116
100
AcDbEntity
  8
LAYER_8
 62
   250
100
AcDbVertex
100
AcDb2dVertex
 10
285.9030207287739
 20
166.114575805512
 30
0.0
  0
VERTEX
  5
123
330
116
100
AcDbEntity
  8
LAYER_8
 62
   250
100
AcDbVertex
100
AcDb2dVertex
 10
282.3222746087924
 20
166.114575805512
 30
0.0
  0
SEQEND
  5
124
330
116
100
AcDbEntity
  8
LAYER_8
 62
   250
  0
SPLINE
  5
125
330
1F
100
AcDbEntity
  8
LAYER_8
 62
   250
100
AcDbSpline
210
0.0
220
0.0
230
1.0
 70
    11
 71
     3
 72
   107
 73
   103
 74
     0
 42
0.0000000001
 43
0.0000000001
 12
1.0
 22
0.0
 32
0.0
 13
1.0
 23
0.0
 33
0.0
 40
0.0
 40
0.0
 40
0.0
 40
0.0
 40
1.0
 40
1.0
 40
1.0
 40
2.0
 40
2.0
 40
2.0
 40
3.0
 40
3.0
 40
3.0
 40
4.0
 40
4.0
 40
4.0
 40
5.0
 40
5.0
 40
5.0
 40
6.0
 40
6.0
 40
6.0
 40
7.0
 40
7.0
 40
7.0
 40
8.0
 40
8.0
 40
8.0
 40
9.0
 40
9.0
 40
9.0
 40
10.0
 40
10.0
 40
10.0
 40
11.0
 40
11.0
 40
11.0
 40
12.0
 40
12.0
 40
12.0
 40
13.0
 40
13.0
 40
13.0
 40
14.0
 40
14.0
 40
14.0
 40
15.0
 40
15.0
 40
15.0
 40
16.0
 40
16.0
 40
16.0
 40
17.0
 40
17.0
 40
17.0
 40
18.0
 40
18.0
 40
18.0
 40
19.0
 40
19.0
 40
19.0
 40
20.0
 40
20.0
 40
20.0
 40
21.0
 40
21.0
 40
21.0
 40
22.0
 40
22.0
 40
22.0
 40
23.0
 40
23.0
 40
23.0
 40
24.0
 40
24.0
 40
24.0
 40
25.0
 40
25.0
 40
25.0
 40
26.0
 40
26.0
 40
26.0
 40
27.0
 40
27.0
 40
27.0
 40
28.0
 40
28.0
 40
28.0
 40
29.0
 40
29.0
 40
29.0
 40
30.0
 40
30.0
 40
30.0
 40
31.0
 40
31.0
 40
31.0
 40
32.0
 40
32.0
 40
32.0
 40
33.0
 40
33.0
 40
33.0
 40
34.0
 40
34.0
 40
34.0
 40
34.0
 10
264.9707731683118
 20
21.71012745088643
 30
0.0
 10
264.9707731683118
 20
21.71012745088643
 30
0.0
 10
275.4146932558531
 20
16.64111535438145
 30
0.0
 10
275.4146932558531
 20
16.64111535438145
 30
0.0
 10
275.4146932558531
 20
16.64111535438145
 30
0.0
 10
265.5006127868689
 20
14.58480245477617
 30
0.0
 10
265.5006127868689
 20
14.58480245477617
 30
0.0
 10
265.5006127868689
 20
14.58480245477617
 30
0.0
 10
266.1035906241748
 20
11.65625597384598
 30
0.0
 10
266.1035906241748
 20
11.65625597384598
 30
0.0
 10
266.1035906241748
 20
11.65625597384598
 30
0.0
 10
257.2148782308349
 20
9.826070529153789
 30
0.0
 10
257.2148782308349
 20
9.826070529153789
 30
0.0
 10
257.2148782308349
 20
9.826070529153789
 30
0.0
 10
256.6145488106833
 20
12.74171943386107
 30
0.0
 10
256.6145488106833
 20
12.74171943386107
 30
0.0
 10
256.6145488106833
 20
12.74171943386107
 30
0.0
 10
248.0045877057937
 20
10.95588959354147
 30
0.0
 10
248.0045877057937
 20
10.95588959354147
 30
0.0
 10
248.0045877057937
 20
10.95588959354147
 30
0.0
 10
236.9909834808453
 20
10.95588959354147
 30
0.0
 10
236.9909834808453
 20
10.95588959354147
 30
0.0
 10
236.9909834808453
 20
10.95588959354147
 30
0.0
 10
236.9909834808453
 20
7.955900444985915
 30
0.0
 10
236.9909834808453
 20
7.955900444985915
 30
0.0
 10
236.9909834808453
 20
7.955900444985915
 30
0.0
 10
221.7396103631847
 20
7.955900444985915
 30
0.0
 10
221.7396103631847
 20
7.955900444985915
 30
0.0
 10
221.7396103631847
 20
7.955900444985915
 30
0.0
 10
221.7396103631847
 20
10.95588959354147
 30
0.0
 10
221.7396103631847
 20
10.95588959354147
 30
0.0
 10
221.7396103631847
 20
10.95588959354147
 30
0.0
 10
179.1329087136801
 20
10.95588959354147
 30
0.0
 10
179.1329087136801
 20
10.95588959354147
 30
0.0
 10
179.1329087136801
 20
10.95588959354147
 30
0.0
 10
179.1329087136801
 20
7.955900444985915
 30
0.0
 10
179.1329087136801
 20
7.955900444985915
 30
0.0
 10
179.1329087136801
 20
7.955900444985915
 30
0.0
 10
163.8815355960194
 20
7.955900444985915
 30
0.0
 10
163.8815355960194
 20
7.955900444985915
 30
0.0
 10
163.8815355960194
 20
7.955900444985915
 30
0.0
 10
163.8815355960194
 20
10.95588959354147
 30
0.0
 10
163.8815355960194
 20
10.95588959354147
 30
0.0
 10
163.8815355960194
 20
10.95588959354147
 30
0.0
 10
162.293669555021
 20
10.95588959354147
 30
0.0
 10
162.293669555021
 20
10.95588959354147
 30
0.0
 10
162.293669555021
 20
10.95588959354147
 30
0.0
 10
149.3500151800017
 20
10.95588959354147
 30
0.0
 10
149.3500151800017
 20
10.95588959354147
 30
0.0
 10
149.3500151800017
 20
10.95588959354147
 30
0.0
 10
140.4813489360166
 20
21.83832180788901
 30
0.0
 10
140.4813489360166
 20
21.83832180788901
 30
0.0
 10
140.4813489360166
 20
21.83832180788901
 30
0.0
 10
138.1595914292728
 20
19.93563863507909
 30
0.0
 10
138.1595914292728
 20
19.93563863507909
 30
0.0
 10
138.1595914292728
 20
19.93563863507909
 30
0.0
 10
128.4925027747342
 20
31.73192549058271
 30
0.0
 10
128.4925027747342
 20
31.73192549058271
 30
0.0
 10
128.4925027747342
 20
31.73192549058271
 30
0.0
 10
130.8464288605716
 20
33.66096364385479
 30
0.0
 10
130.8464288605716
 20
33.66096364385479
 30
0.0
 10
130.8464288605716
 20
33.66096364385479
 30
0.0
 10
123.3539275400163
 20
42.85473924241355
 30
0.0
 10
123.3539275400163
 20
42.85473924241355
 30
0.0
 10
123.3539275400163
 20
42.85473924241355
 30
0.0
 10
148.4798486559679
 20
29.25845459140724
 30
0.0
 10
148.4798486559679
 20
29.25845459140724
 30
0.0
 10
148.4798486559679
 20
29.25845459140724
 30
0.0
 10
163.8815355960194
 20
29.25845459140724
 30
0.0
 10
163.8815355960194
 20
29.25845459140724
 30
0.0
 10
163.8815355960194
 20
29.25845459140724
 30
0.0
 10
163.8815355960194
 20
32.25846527180958
 30
0.0
 10
163.8815355960194
 20
32.25846527180958
 30
0.0
 10
163.8815355960194
 20
32.25846527180958
 30
0.0
 10
179.1329087136801
 20
32.25846527180958
 30
0.0
 10
179.1329087136801
 20
32.25846527180958
 30
0.0
 10
179.1329087136801
 20
32.25846527180958
 30
0.0
 10
179.1329087136801
 20
29.25845459140724
 30
0.0
 10
179.1329087136801
 20
29.25845459140724
 30
0.0
 10
179.1329087136801
 20
29.25845459140724
 30
0.0
 10
221.7396103631847
 20
29.25845459140724
 30
0.0
 10
221.7396103631847
 20
29.25845459140724
 30
0.0
 10
221.7396103631847
 20
29.25845459140724
 30
0.0
 10
221.7396103631847
 20
32.25846527180958
 30
0.0
 10
221.7396103631847
 20
32.25846527180958
 30
0.0
 10
221.7396103631847
 20
32.25846527180958
 30
0.0
 10
226.0009569689195
 20
32.25846527180958
 30
0.0
 10
226.0009569689195
 20
32.25846527180958
 30
0.0
 10
226.0009569689195
 20
32.25846527180958
 30
0.0
 10
233.6403710438257
 20
20.27433012814444
 30
0.0
 10
233.6403710438257
 20
20.27433012814444
 30
0.0
 10
234.126522354862
 20
19.51169271189742
 30
0.0
 10
234.9683541256272
 20
19.0499999952375
 30
0.0
 10
235.8727649426144
 20
19.0499999952375
 30
0.0
 10
235.8727649426144
 20
19.0499999952375
 30
0.0
 10
250.2958332707594
 20
19.0499999952375
 30
0.0
 10
250.2958332707594
 20
19.0499999952375
 30
0.0
 10
250.2958332707594
 20
19.0499999952375
 30
0.0
 10
262.34251747951
 20
21.99038451100304
 30
0.0
 10
262.34251747951
 20
21.99038451100304
 30
0.0
 10
263.2245220996544
 20
22.20566638300702
 30
0.0
 10
264.1539964874163
 20
22.10655435198285
 30
0.0
 10
264.9707731683118
 20
21.71012745088643
 30
0.0
  0
SPLINE
  5
126
330
1F
100
AcDbEntity
  8
LAYER_8
 62
   250
100
AcDbSpline
210
0.0
220
0.0
230
1.0
 70
    11
 71
     3
 72
   107
 73
   103
 74
     0
 42
0.0000000001
 43
0.0000000001
 12
1.0
 22
0.0
 32
0.0
 13
1.0
 23
0.0
 33
0.0
 40
0.0
 40
0.0
 40
0.0
 40
0.0
 40
1.0
 40
1.0
 40
1.0
 40
2.0
 40
2.0
 40
2.0
 40
3.0
 40
3.0
 40
3.0
 40
4.0
 40
4.0
 40
4.0
 40
5.0
 40
5.0
 40
5.0
 40
6.0
 40
6.0
 40
6.0
 40
7.0
 40
7.0
 40
7.0
 40
8.0
 40
8.0
 40
8.0
 40
9.0
 40
9.0
 40
9.0
 40
10.0
 40
10.0
 40
10.0
 40
11.0
 40
11.0
 40
11.0
 40
12.0
 40
12.0
 40
12.0
 40
13.0
 40
13.0
 40
13.0
 40
14.0
 40
14.0
 40
14.0
 40
15.0
 40
15.0
 40
15.0
 40
16.0
 40
16.0
 40
16.0
 40
17.0
 40
17.0
 40
17.0
 40
18.0
 40
18.0
 40
18.0
 40
19.0
 40
19.0
 40
19.0
 40
20.0
 40
20.0
 40
20.0
 40
21.0
 40
21.0
 40
21.0
 40
22.0
 40
22.0
 40
22.0
 40
23.0
 40
23.0
 40
23.0
 40
24.0
 40
24.0
 40
24.0
 40
25.0
 40
25.0
 40
25.0
 40
26.0
 40
26.0
 40
26.0
 40
27.0
 40
27.0
 40
27.0
 40
28.0
 40
28.0
 40
28.0
 40
29.0
 40
29.0
 40
29.0
 40
30.0
 40
30.0
 40
30.0
 40
31.0
 40
31.0
 40
31.0
 40
32.0
 40
32.0
 40
32.0
 40
33.0
 40
33.0
 40
33.0
 40
34.0
 40
34.0
 40
34.0
 40
34.0
 10
144.3818476246366
 20
42.05650223049228
 30
0.0
 10
144.3818476246366
 20
42.05650223049228
 30
0.0
 10
133.9379275370952
 20
47.12551432699725
 30
0.0
 10
133.9379275370952
 20
47.12551432699725
 30
0.0
 10
133.9379275370952
 20
47.12551432699725
 30
0.0
 10
143.8520080060794
 20
49.18182722660253
 30
0.0
 10
143.8520080060794
 20
49.18182722660253
 30
0.0
 10
143.8520080060794
 20
49.18182722660253
 30
0.0
 10
143.2490301687735
 20
52.11037370753272
 30
0.0
 10
143.2490301687735
 20
52.11037370753272
 30
0.0
 10
143.2490301687735
 20
52.11037370753272
 30
0.0
 10
152.1377425621134
 20
53.94055915222491
 30
0.0
 10
152.1377425621134
 20
53.94055915222491
 30
0.0
 10
152.1377425621134
 20
53.94055915222491
 30
0.0
 10
152.738071982265
 20
51.02491024751762
 30
0.0
 10
152.738071982265
 20
51.02491024751762
 30
0.0
 10
152.738071982265
 20
51.02491024751762
 30
0.0
 10
161.3480330871546
 20
52.81074008783723
 30
0.0
 10
161.3480330871546
 20
52.81074008783723
 30
0.0
 10
161.3480330871546
 20
52.81074008783723
 30
0.0
 10
172.361637312103
 20
52.81074008783723
 30
0.0
 10
172.361637312103
 20
52.81074008783723
 30
0.0
 10
172.361637312103
 20
52.81074008783723
 30
0.0
 10
172.361637312103
 20
55.81072923639279
 30
0.0
 10
172.361637312103
 20
55.81072923639279
 30
0.0
 10
172.361637312103
 20
55.81072923639279
 30
0.0
 10
187.6130104297637
 20
55.81072923639279
 30
0.0
 10
187.6130104297637
 20
55.81072923639279
 30
0.0
 10
187.6130104297637
 20
55.81072923639279
 30
0.0
 10
187.6130104297637
 20
52.81074008783723
 30
0.0
 10
187.6130104297637
 20
52.81074008783723
 30
0.0
 10
187.6130104297637
 20
52.81074008783723
 30
0.0
 10
230.2197120792683
 20
52.81074008783723
 30
0.0
 10
230.2197120792683
 20
52.81074008783723
 30
0.0
 10
230.2197120792683
 20
52.81074008783723
 30
0.0
 10
230.2197120792683
 20
55.81072923639279
 30
0.0
 10
230.2197120792683
 20
55.81072923639279
 30
0.0
 10
230.2197120792683
 20
55.81072923639279
 30
0.0
 10
245.471085196929
 20
55.81072923639279
 30
0.0
 10
245.471085196929
 20
55.81072923639279
 30
0.0
 10
245.471085196929
 20
55.81072923639279
 30
0.0
 10
245.471085196929
 20
52.81074008783723
 30
0.0
 10
245.471085196929
 20
52.81074008783723
 30
0.0
 10
245.471085196929
 20
52.81074008783723
 30
0.0
 10
247.0589512379274
 20
52.81074008783723
 30
0.0
 10
247.0589512379274
 20
52.81074008783723
 30
0.0
 10
247.0589512379274
 20
52.81074008783723
 30
0.0
 10
260.0026056129467
 20
52.81074008783723
 30
0.0
 10
260.0026056129467
 20
52.81074008783723
 30
0.0
 10
260.0026056129467
 20
52.81074008783723
 30
0.0
 10
268.8712718569318
 20
41.92830787348969
 30
0.0
 10
268.8712718569318
 20
41.92830787348969
 30
0.0
 10
268.8712718569318
 20
41.92830787348969
 30
0.0
 10
271.1930293636756
 20
43.83099104629962
 30
0.0
 10
271.1930293636756
 20
43.83099104629962
 30
0.0
 10
271.1930293636756
 20
43.83099104629962
 30
0.0
 10
280.8601180182141
 20
32.03470419079599
 30
0.0
 10
280.8601180182141
 20
32.03470419079599
 30
0.0
 10
280.8601180182141
 20
32.03470419079599
 30
0.0
 10
278.5061919323768
 20
30.10566603752391
 30
0.0
 10
278.5061919323768
 20
30.10566603752391
 30
0.0
 10
278.5061919323768
 20
30.10566603752391
 30
0.0
 10
285.998693252932
 20
20.91189043896515
 30
0.0
 10
285.998693252932
 20
20.91189043896515
 30
0.0
 10
285.998693252932
 20
20.91189043896515
 30
0.0
 10
260.8727721369804
 20
34.50817508997147
 30
0.0
 10
260.8727721369804
 20
34.50817508997147
 30
0.0
 10
260.8727721369804
 20
34.50817508997147
 30
0.0
 10
245.471085196929
 20
34.50817508997147
 30
0.0
 10
245.471085196929
 20
34.50817508997147
 30
0.0
 10
245.471085196929
 20
34.50817508997147
 30
0.0
 10
245.471085196929
 20
31.50816440956912
 30
0.0
 10
245.471085196929
 20
31.50816440956912
 30
0.0
 10
245.471085196929
 20
31.50816440956912
 30
0.0
 10
230.2197120792683
 20
31.50816440956912
 30
0.0
 10
230.2197120792683
 20
31.50816440956912
 30
0.0
 10
230.2197120792683
 20
31.50816440956912
 30
0.0
 10
230.2197120792683
 20
34.50817508997147
 30
0.0
 10
230.2197120792683
 20
34.50817508997147
 30
0.0
 10
230.2197120792683
 20
34.50817508997147
 30
0.0
 10
187.6130104297637
 20
34.50817508997147
 30
0.0
 10
187.6130104297637
 20
34.50817508997147
 30
0.0
 10
187.6130104297637
 20
34.50817508997147
 30
0.0
 10
187.6130104297637
 20
31.50816440956912
 30
0.0
 10
187.6130104297637
 20
31.50816440956912
 30
0.0
 10
187.6130104297637
 20
31.50816440956912
 30
0.0
 10
183.3516638240288
 20
31.50816440956912
 30
0.0
 10
183.3516638240288
 20
31.50816440956912
 30
0.0
 10
183.3516638240288
 20
31.50816440956912
 30
0.0
 10
175.7122497491227
 20
43.49229955323426
 30
0.0
 10
175.7122497491227
 20
43.49229955323426
 30
0.0
 10
175.2260984380867
 20
44.25493696948129
 30
0.0
 10
174.3842666673208
 20
44.7166296861412
 30
0.0
 10
173.4798558503342
 20
44.7166296861412
 30
0.0
 10
173.4798558503342
 20
44.7166296861412
 30
0.0
 10
159.056787522189
 20
44.7166296861412
 30
0.0
 10
159.056787522189
 20
44.7166296861412
 30
0.0
 10
159.056787522189
 20
44.7166296861412
 30
0.0
 10
147.0101033134383
 20
41.77624517037566
 30
0.0
 10
147.0101033134383
 20
41.77624517037566
 30
0.0
 10
146.1280986932943
 20
41.56096329837168
 30
0.0
 10
145.1986243055324
 20
41.66007532939585
 30
0.0
 10
144.3818476246366
 20
42.05650223049228
 30
0.0
  0
INSERT
  5
128
330
1F
100
AcDbEntity
  8
LAYER_8
100
AcDbBlockReference
  2
BLOCK_9
 10
0.0
 20
0.0
 30
0.0
  0
SPLINE
  5
149
330
1F
100
AcDbEntity
  8
LAYER_8
 62
   250
100
AcDbSpline
210
0.0
220
0.0
230
1.0
 70
    11
 71
     3
 72
    65
 73
    61
 74
     0
 42
0.0000000001
 43
0.0000000001
 12
1.0
 22
0.0
 32
0.0
 13
1.0
 23
0.0
 33
0.0
 40
0.0
 40
0.0
 40
0.0
 40
0.0
 40
1.0
 40
1.0
 40
1.0
 40
2.0
 40
2.0
 40
2.0
 40
3.0
 40
3.0
 40
3.0
 40
4.0
 40
4.0
 40
4.0
 40
5.0
 40
5.0
 40
5.0
 40
6.0
 40
6.0
 40
6.0
 40
7.0
 40
7.0
 40
7.0
 40
8.0
 40
8.0
 40
8.0
 40
9.0
 40
9.0
 40
9.0
 40
10.0
 40
10.0
 40
10.0
 40
11.0
 40
11.0
 40
11.0
 40
12.0
 40
12.0
 40
12.0
 40
13.0
 40
13.0
 40
13.0
 40
14.0
 40
14.0
 40
14.0
 40
15.0
 40
15.0
 40
15.0
 40
16.0
 40
16.0
 40
16.0
 40
17.0
 40
17.0
 40
17.0
 40
18.0
 40
18.0
 40
18.0
 40
19.0
 40
19.0
 40
19.0
 40
20.0
 40
20.0
 40
20.0
 40
20.0
 10
179.5430476293851
 20
96.52171391087391
 30
0.0
 10
179.5430476293851
 20
96.52171391087391
 30
0.0
 10
182.5430367779406
 20
96.52171391087391
 30
0.0
 10
182.5430367779406
 20
96.52171391087391
 30
0.0
 10
182.5430367779406
 20
96.52171391087391
 30
0.0
 10
182.5430367779406
 20
139.1284155603785
 30
0.0
 10
182.5430367779406
 20
139.1284155603785
 30
0.0
 10
182.5430367779406
 20
139.1284155603785
 30
0.0
 10
179.5430476293851
 20
139.1284155603785
 30
0.0
 10
179.5430476293851
 20
139.1284155603785
 30
0.0
 10
179.5430476293851
 20
139.1284155603785
 30
0.0
 10
179.5430476293851
 20
154.3797886780392
 30
0.0
 10
179.5430476293851
 20
154.3797886780392
 30
0.0
 10
179.5430476293851
 20
154.3797886780392
 30
0.0
 10
182.5430367779406
 20
154.3797886780392
 30
0.0
 10
182.5430367779406
 20
154.3797886780392
 30
0.0
 10
182.5430367779406
 20
154.3797886780392
 30
0.0
 10
182.5430367779406
 20
167.9361748169569
 30
0.0
 10
182.5430367779406
 20
167.9361748169569
 30
0.0
 10
182.5430367779406
 20
167.9361748169569
 30
0.0
 10
124.9892070058165
 20
167.9361748169569
 30
0.0
 10
124.9892070058165
 20
167.9361748169569
 30
0.0
 10
124.9892070058165
 20
167.9361748169569
 30
0.0
 10
124.9892070058165
 20
154.3797886780392
 30
0.0
 10
124.9892070058165
 20
154.3797886780392
 30
0.0
 10
124.9892070058165
 20
154.3797886780392
 30
0.0
 10
127.9892176862188
 20
154.3797886780392
 30
0.0
 10
127.9892176862188
 20
154.3797886780392
 30
0.0
 10
127.9892176862188
 20
154.3797886780392
 30
0.0
 10
127.9892176862188
 20
139.1284155603785
 30
0.0
 10
127.9892176862188
 20
139.1284155603785
 30
0.0
 10
127.9892176862188
 20
139.1284155603785
 30
0.0
 10
124.9892070058165
 20
139.1284155603785
 30
0.0
 10
124.9892070058165
 20
139.1284155603785
 30
0.0
 10
124.9892070058165
 20
139.1284155603785
 30
0.0
 10
124.9892070058165
 20
96.52171391087391
 30
0.0
 10
124.9892070058165
 20
96.52171391087391
 30
0.0
 10
124.9892070058165
 20
96.52171391087391
 30
0.0
 10
127.9892176862188
 20
96.52171391087391
 30
0.0
 10
127.9892176862188
 20
96.52171391087391
 30
0.0
 10
127.9892176862188
 20
96.52171391087391
 30
0.0
 10
130.5461500574442
 20
101.9270220065311
 30
0.0
 10
130.5461500574442
 20
101.9270220065311
 30
0.0
 10
130.5461500574442
 20
101.9270220065311
 30
0.0
 10
130.5461500574442
 20
132.3669656793996
 30
0.0
 10
130.5461500574442
 20
132.3669656793996
 30
0.0
 10
133.6703443906736
 20
135.491160012629
 30
0.0
 10
135.4219557222156
 20
137.2427713441709
 30
0.0
 10
138.5461500554443
 20
140.3669656773997
 30
0.0
 10
138.5461500554443
 20
140.3669656773997
 30
0.0
 10
168.9860937283128
 20
140.3669656773997
 30
0.0
 10
168.9860937283128
 20
140.3669656773997
 30
0.0
 10
172.1102880615422
 20
137.2427713441709
 30
0.0
 10
173.8618993930841
 20
135.491160012629
 30
0.0
 10
176.9860937263129
 20
132.3669656793996
 30
0.0
 10
176.9860937263129
 20
132.3669656793996
 30
0.0
 10
176.9860937263129
 20
101.9270220065311
 30
0.0
 10
176.9860937263129
 20
101.9270220065311
 30
0.0
 10
176.9860937263129
 20
101.9270220065311
 30
0.0
 10
179.5430476293851
 20
96.52171391087391
 30
0.0
 10
179.5430476293851
 20
96.52171391087391
 30
0.0
  0
POLYLINE
  5
14B
330
1F
100
AcDbEntity
  8
SHEET_SIZE
 62
   250
100
AcDb2dPolyline
 66
     1
 10
0.0
 20
0.0
 30
0.0
  0
VERTEX
  5
14C
330
14B
100
AcDbEntity
  8
SHEET_SIZE
 62
   250
100
AcDbVertex
100
AcDb2dVertex
 10
358.7749999103063
 20
3.17499999920625
 30
0.0
  0
VERTEX
  5
14D
330
14B
100
AcDbEntity
  8
SHEET_SIZE
 62
   250
100
AcDbVertex
100
AcDb2dVertex
 10
116.7694444152521
 20
3.17499999920625
 30
0.0
  0
VERTEX
  5
14E
330
14B
100
AcDbEntity
  8
SHEET_SIZE
 62
   250
100
AcDbVertex
100
AcDb2dVertex
 10
116.7694444152521
 20
241.299999939675
 30
0.0
  0
VERTEX
  5
14F
330
14B
100
AcDbEntity
  8
SHEET_SIZE
 62
   250
100
AcDbVertex
100
AcDb2dVertex
 10
358.7749999103063
 20
241.299999939675
 30
0.0
  0
VERTEX
  5
150
330
14B
100
AcDbEntity
  8
SHEET_SIZE
 62
   250
100
AcDbVertex
100
AcDb2dVertex
 10
358.7749999103063
 20
3.17499999920625
 30
0.0
  0
SEQEND
  5
151
330
14B
100
AcDbEntity
  8
SHEET_SIZE
 62
   250
  0
ENDSEC
  0
SECTION
  2
OBJECTS
  0
DICTIONARY
  5
C
330
0
100
AcDbDictionary
  3
ACAD_GROUP
350
D
  3
ACAD_LAYOUT
350
1A
  3
ACAD_MATERIAL
350
3B
  3
ACAD_MLEADERSTYLE
350
174
  3
ACAD_MLINESTYLE
350
17
  3
ACAD_PLOTSETTINGS
350
19
  3
ACAD_VISUALSTYLE
350
2A
  3
ACDBHEADERROUNDTRIPXREC
350
152
  3
ACDBVARIABLEDICTIONARY
350
172
  0
DICTIONARY
  5
D
102
{ACAD_REACTORS
330
C
102
}
330
C
100
AcDbDictionary
  0
DICTIONARY
  5
1A
102
{ACAD_REACTORS
330
C
102
}
330
C
100
AcDbDictionary
  0
DICTIONARY
  5
3B
102
{ACAD_REACTORS
330
C
102
}
330
C
100
AcDbDictionary
  3
BYBLOCK
350
3D
  3
BYLAYER
350
3C
  3
GLOBAL
350
3E
  0
DICTIONARY
  5
174
102
{ACAD_REACTORS
330
C
102
}
330
C
100
AcDbDictionary
  0
DICTIONARY
  5
17
102
{ACAD_REACTORS
330
C
102
}
330
C
100
AcDbDictionary
  3
STANDARD
350
18
  0
DICTIONARY
  5
19
102
{ACAD_REACTORS
330
C
102
}
330
C
100
AcDbDictionary
  0
DICTIONARY
  5
2A
102
{ACAD_REACTORS
330
C
102
}
330
C
100
AcDbDictionary
  3
2DWIREFRAME
350
2F
  3
3DWIREFRAME
350
30
  3
3D_HIDDEN
350
31
  3
BASIC
350
32
  3
BRIGHTEN
350
36
  3
COLORCHANGE
350
3A
  3
CONCEPTUAL
350
34
  3
DIM
350
35
  3
FACEPATTERN
350
39
  3
FLAT
350
2B
  3
FLATWITHEDGES
350
2C
  3
GOURAUD
350
2D
  3
GOURAUDWITHEDGES
350
2E
  3
LINEPATTERN
350
38
  3
REALISTIC
350
33
  3
THICKEN
350
37
  0
DICTIONARY
  5
152
102
{ACAD_REACTORS
330
C
102
}
330
C
100
AcDbDictionary
  3
CEPSNTYPE
350
15B
  3
DIMSTYLEDATA
350
171
  3
FINGERPRINTGUID
350
15C
  3
HYPERLINKBASE
350
155
  3
INSUNITS
350
15A
  3
LAYOUTDICT
350
157
  3
LWETCUNION
350
159
  3
PLOTSETDICT
350
158
  3
PSVPSCALE
350
15E
  3
PUCSBASE
350
161
  3
PUCSORGBACK
350
167
  3
PUCSORGBOTTOM
350
163
  3
PUCSORGFRONT
350
166
  3
PUCSORGLEFT
350
164
  3
PUCSORGRIGHT
350
165
  3
PUCSORGTOP
350
162
  3
PUCSORTHOREF
350
15F
  3
PUCSORTHOVIEW
350
160
  3
STYLESHEET
350
156
  3
TSTACKALIGN
350
153
  3
TSTACKSIZE
350
154
  3
UCSBASE
350
16A
  3
UCSORGBACK
350
170
  3
UCSORGBOTTOM
350
16C
  3
UCSORGFRONT
350
16F
  3
UCSORGLEFT
350
16D
  3
UCSORGRIGHT
350
16E
  3
UCSORGTOP
350
16B
  3
UCSORTHOREF
350
168
  3
UCSORTHOVIEW
350
169
  3
VERSIONGUID
350
15D
  0
DICTIONARY
  5
172
102
{ACAD_REACTORS
330
C
102
}
330
C
100
AcDbDictionary
  3
DIMASSOC
350
175
  3
HIDETEXT
350
176
  0
MATERIAL
  5
3D
102
{ACAD_REACTORS
330
3B
102
}
102
{ACAD_XDICTIONARY
360
179
102
}
330
3B
100
AcDbMaterial
  1
ByBlock
  0
MATERIAL
  5
3C
102
{ACAD_REACTORS
330
3B
102
}
102
{ACAD_XDICTIONARY
360
177
102
}
330
3B
100
AcDbMaterial
  1
ByLayer
  0
MATERIAL
  5
3E
102
{ACAD_REACTORS
330
3B
102
}
102
{ACAD_XDICTIONARY
360
17B
102
}
330
3B
100
AcDbMaterial
  1
Global
  0
MLINESTYLE
  5
18
102
{ACAD_REACTORS
330
17
102
}
330
17
100
AcDbMlineStyle
  2
Standard
 70
     0
  3

 62
   256
 51
90.0
 52
90.0
 71
     2
 49
0.5
 62
   256
  6
BYLAYER
 49
-0.5
 62
   256
  6
BYLAYER
  0
ACAD_PROXY_OBJECT
  5
2F
102
{ACAD_REACTORS
330
2A
102
}
330
2A
100
AcDbProxyObject
 90
      499
 91
      501
 93
      436
310
42CC9915DA5C99599C985B595049028333333333333E3BF0000000000000FB0107901411070040501600405405064090741402480A0340
1001
ACAD
1000
AcDbSavedByObjectVersion
1070
     0
  0
ACAD_PROXY_OBJECT
  5
30
102
{ACAD_REACTORS
330
2A
102
}
330
2A
100
AcDbProxyObject
 90
      499
 91
      501
 93
      436
310
42CCD915DA5C99599C985B595059028333333333333E3BF0000000000000FB0107901411070040501600405405064090741402480A0340
1001
ACAD
1000
AcDbSavedByObjectVersion
1070
     0
  0
ACAD_PROXY_OBJECT
  5
31
102
{ACAD_REACTORS
330
2A
102
}
330
2A
100
AcDbProxyObject
 90
      499
 91
      501
 93
      500
310
424CD108121A5919195B90640502408333333333333E3BF0000000000000FB01079024090700405020000000000001110200405405064090740C02480A0340
1001
ACAD
1000
AcDbSavedByObjectVersion
1070
     0
  0
ACAD_PROXY_OBJECT
  5
32
102
{ACAD_REACTORS
330
2A
102
}
330
2A
100
AcDbProxyObject
 90
      499
 91
      501
 93
      388
310
4150985CDA58D07406404333333333333E3BF0000000000000FB0107A41107004050150841D405064090741402480A0350
1001
ACAD
1000
AcDbSavedByObjectVersion
1070
     0
  0
ACAD_PROXY_OBJECT
  5
36
102
{ACAD_REACTORS
330
2A
102
}
330
2A
100
AcDbProxyObject
 90
      499
 91
      501
 93
      428
310
42109C9A59DA1D195B90C409028333333333333E3BF0000000000000FB010790141107004050150841D405064090741402480A029950
1001
ACAD
1000
AcDbSavedByObjectVersion
1070
     0
  0
ACAD_PROXY_OBJECT
  5
3A
102
{ACAD_REACTORS
330
2A
102
}
330
2A
100
AcDbProxyObject
 90
      499
 91
      501
 93
      452
310
42D0DBDB1BDC90DA185B99D95104090240C333333333333E3BF0000000000000FB0108901411070040501508421405064090741402480A0350
1001
ACAD
1000
AcDbSavedByObjectVersion
1070
     0
  0
ACAD_PROXY_OBJECT
  5
34
102
{ACAD_REACTORS
330
2A
102
}
330
2A
100
AcDbProxyObject
 90
      499
 91
      501
 93
      500
310
4290DBDB98D95C1D1D585B10940D028333333333333E3BF0000000000000FB0107902409070040501000000000000111010841D405064090740C02480A0340
1001
ACAD
1000
AcDbSavedByObjectVersion
1070
     0
  0
ACAD_PROXY_OBJECT
  5
35
102
{ACAD_REACTORS
330
2A
102
}
330
2A
100
AcDbProxyObject
 90
      499
 91
      501
 93
      412
310
40D11A5B50B409028333333333333E3BF0000000000000FB010790141107004050150841D405064090741402480A02677FFFFFD0
1001
ACAD
1000
AcDbSavedByObjectVersion
1070
     0
  0
ACAD_PROXY_OBJECT
  5
39
102
{ACAD_REACTORS
330
2A
102
}
330
2A
100
AcDbProxyObject
 90
      499
 91
      501
 93
      444
310
42D19858D95C185D1D195C9B90F409028333333333333E3BF0000000000000FB010790141107004050150841D405064090741402480A0350
1001
ACAD
1000
AcDbSavedByObjectVersion
1070
     0
  0
ACAD_PROXY_OBJECT
  5
2B
102
{ACAD_REACTORS
330
2A
102
}
330
2A
100
AcDbProxyObject
 90
      499
 91
      501
 93
      388
310
41119B185D240901404333333333333E3BF0000000000000F9010740A41107004050150841D405064090741402480A1B50
1001
ACAD
1000
AcDbSavedByObjectVersion
1070
     0
  0
ACAD_PROXY_OBJECT
  5
2C
102
{ACAD_REACTORS
330
2A
102
}
330
2A
100
AcDbProxyObject
 90
      499
 91
      501
 93
      476
310
43519B185D15DA5D1A115919D95CD0140901404333333333333E3BF0000000000000F9010740901411070040501600405405064090741402480A1B50
1001
ACAD
1000
AcDbSavedByObjectVersion
1070
     0
  0
ACAD_PROXY_OBJECT
  5
2D
102
{ACAD_REACTORS
330
2A
102
}
330
2A
100
AcDbProxyObject
 90
      499
 91
      501
 93
      412
310
41D1DBDD5C985D5910240902404333333333333E3BF0000000000000F9010740A411070040501641D405064090741402480A1B50
1001
ACAD
1000
AcDbSavedByObjectVersion
1070
     0
  0
ACAD_PROXY_OBJECT
  5
2E
102
{ACAD_REACTORS
330
2A
102
}
330
2A
100
AcDbProxyObject
 90
      499
 91
      501
 93
      500
310
4411DBDD5C985D5915DA5D1A115919D95CD0340902404333333333333E3BF0000000000000F9010740901411070040501600405405064090741402480A1B50
1001
ACAD
1000
AcDbSavedByObjectVersion
1070
     0
  0
ACAD_PROXY_OBJECT
  5
38
102
{ACAD_REACTORS
330
2A
102
}
330
2A
100
AcDbProxyObject
 90
      499
 91
      501
 93
      444
310
42D31A5B995C185D1D195C9B90E409028333333333333E3BF0000000000000FB010790141107004050750841D405064090741402483A0350
1001
ACAD
1000
AcDbSavedByObjectVersion
1070
     0
  0
ACAD_PROXY_OBJECT
  5
33
102
{ACAD_REACTORS
330
2A
102
}
330
2A
100
AcDbProxyObject
 90
      499
 91
      501
 93
      420
310
425499585B1A5CDD1A58D08409028333333333333E3BF0000000000000FB01079019070040501508421405064090741402480A1B40
1001
ACAD
1000
AcDbSavedByObjectVersion
1070
     0
  0
ACAD_PROXY_OBJECT
  5
37
102
{ACAD_REACTORS
330
2A
102
}
330
2A
100
AcDbProxyObject
 90
      499
 91
      501
 93
      412
310
41D51A1A58DAD95B90D409028333333333333E3BF0000000000000FB010790141107004050150C41D405064090741402480A0350
1001
ACAD
1000
AcDbSavedByObjectVersion
1070
     0
  0
XRECORD
  5
15B
102
{ACAD_REACTORS
330
152
102
}
330
152
100
AcDbXrecord
 90
        0
  0
XRECORD
  5
171
102
{ACAD_REACTORS
330
152
102
}
330
152
100
AcDbXrecord
1000
DSTYLE
1002
{
1070
   340
340
11
1002
}
  0
XRECORD
  5
15C
102
{ACAD_REACTORS
330
152
102
}
330
152
100
AcDbXrecord
  1
{A525D07B-5D32-E114-38C8-0E1B59805F99}
  0
XRECORD
  5
155
102
{ACAD_REACTORS
330
152
102
}
330
152
100
AcDbXrecord
  1

  0
XRECORD
  5
15A
102
{ACAD_REACTORS
330
152
102
}
330
152
100
AcDbXrecord
 90
        1
  0
XRECORD
  5
157
102
{ACAD_REACTORS
330
152
102
}
330
152
100
AcDbXrecord
340
1A
  0
XRECORD
  5
159
102
{ACAD_REACTORS
330
152
102
}
330
152
100
AcDbXrecord
 90
    10269
  0
XRECORD
  5
158
102
{ACAD_REACTORS
330
152
102
}
330
152
100
AcDbXrecord
340
19
  0
XRECORD
  5
15E
102
{ACAD_REACTORS
330
152
102
}
330
152
100
AcDbXrecord
 40
0.0
  0
XRECORD
  5
161
102
{ACAD_REACTORS
330
152
102
}
330
152
100
AcDbXrecord
340
0
  0
XRECORD
  5
167
102
{ACAD_REACTORS
330
152
102
}
330
152
100
AcDbXrecord
 10
0.0
 20
0.0
 30
0.0
  0
XRECORD
  5
163
102
{ACAD_REACTORS
330
152
102
}
330
152
100
AcDbXrecord
 10
0.0
 20
0.0
 30
0.0
  0
XRECORD
  5
166
102
{ACAD_REACTORS
330
152
102
}
330
152
100
AcDbXrecord
 10
0.0
 20
0.0
 30
0.0
  0
XRECORD
  5
164
102
{ACAD_REACTORS
330
152
102
}
330
152
100
AcDbXrecord
 10
0.0
 20
0.0
 30
0.0
  0
XRECORD
  5
165
102
{ACAD_REACTORS
330
152
102
}
330
152
100
AcDbXrecord
 10
0.0
 20
0.0
 30
0.0
  0
XRECORD
  5
162
102
{ACAD_REACTORS
330
152
102
}
330
152
100
AcDbXrecord
 10
0.0
 20
0.0
 30
0.0
  0
XRECORD
  5
15F
102
{ACAD_REACTORS
330
152
102
}
330
152
100
AcDbXrecord
340
0
  0
XRECORD
  5
160
102
{ACAD_REACTORS
330
152
102
}
330
152
100
AcDbXrecord
 70
     0
  0
XRECORD
  5
156
102
{ACAD_REACTORS
330
152
102
}
330
152
100
AcDbXrecord
  1

  0
XRECORD
  5
153
102
{ACAD_REACTORS
330
152
102
}
330
152
100
AcDbXrecord
 90
        1
  0
XRECORD
  5
154
102
{ACAD_REACTORS
330
152
102
}
330
152
100
AcDbXrecord
 90
       70
  0
XRECORD
  5
16A
102
{ACAD_REACTORS
330
152
102
}
330
152
100
AcDbXrecord
340
0
  0
XRECORD
  5
170
102
{ACAD_REACTORS
330
152
102
}
330
152
100
AcDbXrecord
 10
0.0
 20
0.0
 30
0.0
  0
XRECORD
  5
16C
102
{ACAD_REACTORS
330
152
102
}
330
152
100
AcDbXrecord
 10
0.0
 20
0.0
 30
0.0
  0
XRECORD
  5
16F
102
{ACAD_REACTORS
330
152
102
}
330
152
100
AcDbXrecord
 10
0.0
 20
0.0
 30
0.0
  0
XRECORD
  5
16D
102
{ACAD_REACTORS
330
152
102
}
330
152
100
AcDbXrecord
 10
0.0
 20
0.0
 30
0.0
  0
XRECORD
  5
16E
102
{ACAD_REACTORS
330
152
102
}
330
152
100
AcDbXrecord
 10
0.0
 20
0.0
 30
0.0
  0
XRECORD
  5
16B
102
{ACAD_REACTORS
330
152
102
}
330
152
100
AcDbXrecord
 10
0.0
 20
0.0
 30
0.0
  0
XRECORD
  5
168
102
{ACAD_REACTORS
330
152
102
}
330
152
100
AcDbXrecord
340
0
  0
XRECORD
  5
169
102
{ACAD_REACTORS
330
152
102
}
330
152
100
AcDbXrecord
 70
     0
  0
XRECORD
  5
15D
102
{ACAD_REACTORS
330
152
102
}
330
152
100
AcDbXrecord
  1
{FAEB1C32-E019-11D5-929B-00C0DF256EC4}
  0
DICTIONARYVAR
  5
175
102
{ACAD_REACTORS
330
172
102
}
330
172
100
DictionaryVariables
280
     0
  1
2
  0
DICTIONARYVAR
  5
176
102
{ACAD_REACTORS
330
172
102
}
330
172
100
DictionaryVariables
280
     0
  1
1
  0
DICTIONARY
  5
179
330
3D
100
AcDbDictionary
280
     1
  3
ACAD_XREC_ROUNDTRIP
360
17A
  0
DICTIONARY
  5
177
330
3C
100
AcDbDictionary
280
     1
  3
ACAD_XREC_ROUNDTRIP
360
178
  0
DICTIONARY
  5
17B
330
3E
100
AcDbDictionary
280
     1
  3
ACAD_XREC_ROUNDTRIP
360
17C
  0
XRECORD
  5
17A
102
{ACAD_REACTORS
330
179
102
}
330
179
100
AcDbXrecord
102
MATERIAL
148
0.0
149
0.0
149
0.0
 93
        0
 94
      127
282
     0
 72
     1
 77
     1
171
     1
175
     1
179
     1
273
     0
  0
XRECORD
  5
178
102
{ACAD_REACTORS
330
177
102
}
330
177
100
AcDbXrecord
102
MATERIAL
148
0.0
149
0.0
149
0.0
 93
        0
 94
      127
282
     0
 72
     1
 77
     1
171
     1
175
     1
179
     1
273
     0
  0
XRECORD
  5
17C
102
{ACAD_REACTORS
330
17B
102
}
330
17B
100
AcDbXrecord
102
MATERIAL
148
0.0
149
0.0
149
0.0
 93
        0
 94
      127
282
     0
 72
     1
 77
     1
171
     1
175
     1
179
     1
273
     0
  0
ENDSEC
  0
EOF
